PrimaNota.ru - самый крупный в мире бесплатный архив песенных текстов, аккордов, табулатур и нот


Balthazar - Wire - бас-таба, видео

Регистрация Запомнить меня
Войти через:  Facebook Google Twitter Vk Yandex Mail.ru

Balthazar - Wire - бас-таба, видео

Печатать
Просмотров: 207
Title: Wire
Artist: Balthazar
Album: Applause


 Verse:
|-------------------------------------------------|
|-------------------------------------------------|
|--8--8---6----------6--8---8---9---------4-4*4---|
|------------9---9-----------------6---6----------| x7 *not played every time


 Chorus A:
|-------------------------------------------------|
|-------------------------------------------------|
|----------------------3-3-3--------3-3s----------|
|--1-1-1---------1-1s-----------------------------| x3


 And the transition between the two... :
|-------------------------------------------------|
|-------------------------------------------------|
|----------------------3-3-3-----3---3s-9-9-9-----|
|--1-1-1---------1-1s-----------------------------| x1


 Verse:
|-------------------------------------------------|
|-------------------------------------------------|
|--8--8---6----------6--8---8---9---------4-4*4---|
|------------9---9-----------------6---6----------| x4


 Chorus B
 Main riff:
|-------------------------------------------------|
|-------------------------------------------------|
|-------------------------------------------------|
|--11--111--111--111--133--333--333--333--333-3---| x3 (insert below riffs between repeats)

 End 1:
|-------------------------------------------------|
|-------------------------------------------------|
|--------------------------------s10-10-10-10-8-7-|
|--11--111--111--111--133--333--3s----------------| 

 End 2:
|-------------------------------------------------|
|-------------------------------------------------|
|-------------------------------------------------|
|--11--111--111--111--133--333--3---3---3--3333---|

 End 3:
|-------------------------------------------------|
|-------------------------------------------------|
|-------------------------------------------------|
|--11--111--111--111--133--333--3---3-3-3s9-9-9-9-|


 Verse
|-------------------------------------------------|
|-------------------------------------------------|
|--8--8---6----------6--8---8---9---------4-4*4---|
|------------9---9-----------------6---6----------| x2


T h e   E n d
Добавлено: 28.02.2014
Другие материалы по этой песне:
  • Аккорды и текст

Страница создана 28.02.2014
http://primanota.ru/balthazar/wire-chords.htm
Привет, Гость.
Предлагаем пройти революционный курс по гитаре.
Подарок от PrimaNota.Ru, забирай!