PrimaNota.ru - самый крупный в мире бесплатный архив песенных текстов, аккордов, табулатур и нот


Balthazar - The Oldest Of Sisters - таба, видео

Регистрация Запомнить меня
Войти через:  Facebook Google Twitter Vk Yandex Mail.ru

Balthazar - The Oldest Of Sisters - таба, видео

Печатать
Просмотров: 327
Авторы музыки: Jinte Deprez, Maarten Devoldere
Авторы текста: Jinte Deprez, Maarten Devoldere
-------------------------------------------------------------------------------
                    Balthazar - The Oldest of Sisters        
-------------------------------------------------------------------------------
Tabbed by: Tim van Kester
E-mail:

Tuning: Standard

For this tab, I used some live performances. Therefore, it may be that it
sounds a little different to the album version. However, I still think the
chords fit. Please comment if you have suggestions.

Intro
e|-2--2--0--3--0----0---------2--2--0--3--0--|
B|-3--2--0--3--2----0---------3--2--0--3--2--|
G|-4--2--0--0--2----0---[x3]--4--2--0--0--2--|
D|-4--4--2--0--2----2---------4--4--2--0--2--|
A|-2--4--2--2--0----2---------2--4--2--2--0--|
E|----2--0--3-------0------------2--0--3-----|

Verse
e|-7--------2----2----------|
B|-8--------3----2----------|
G|-9--------4----2----[x3]--|
D|-9--------4----4----------|
A|-7--------2----4----------|
E|---------------2----------|

e|-7--------7----9--8-----------7--------2----0---|
B|-8--------7----10-9-----------8--------2----0---|
G|-9--------7----11-10---[x4]---9--------2----0---|
D|-9--------9----11-10----------9--------4----2---|
A|-7--------9----9--8-----------7--------4----2---|
E|----------7----------------------------2----0---|

Trumpet riff
e|---------------------------------------------------------------------|
B|----7--8------------------7--8--------------------7--8---------------|
G|----------7--6----9-------------7--6--6-7-9-------------7--6----9----|
D|-9---------------------9-----------------------9---------------------|
A|---------------------------------------------------------------------|
E|---------------------------------------------------------------------|

e|------------------------------|
B|----7--8----------------------|
G|----------7--6----6--7--------|
D|-9----------------------9-----|
A|------------------------------|
E|------------------------------|

Guitar returns to intro, which will function as a chorus. 
After that, repeat verse again.
Again, play the chorus. Then, only play the second bar of the verse.

Song ending: 

e|-2--2--0--3--0----0---------2--2--0--3--0------2-|
B|-3--2--0--3--2----0---------3--2--0--3--2------3-|
G|-4--2--0--0--2----0---[x3]--4--2--0--0--2------4-|
D|-4--4--2--0--2----2---------4--4--2--0--2------4-|
A|-2--4--2--2--0----2---------2--4--2--2--0------2-|
E|----2--0--3-------0------------2--0--3-----------|




************************************

| /   slide up
| \   slide down
| h   hammer-on
| p   pull-off
| ~   vibrato
| +   harmonic
| x   Mute note
| b   Bend
| pb  Pre-bend
| br  Bend release
| pbr Pre-bend release
| brb Bend release bend

************************************
Добавлено: 06.08.2013
Другие материалы по этой песне:
  • Аккорды и текст

Страница создана 15.06.2013
http://primanota.ru/balthazar/the-oldest-of-sisters-chords.htm
Привет, Гость.
Предлагаем пройти революционный курс по гитаре.
Подарок от PrimaNota.Ru, забирай!