PrimaNota.ru - самый крупный в мире бесплатный архив песенных текстов, аккордов, табулатур и нот


Ball Park Music - Shithaus - таба, видео

Регистрация Запомнить меня
Войти через:  Facebook Google Twitter Vk Yandex Mail.ru

Ball Park Music - Shithaus - таба, видео

Печатать
Просмотров: 80
This song is relatively difficult to figure out so i'll be updating this tab as I figure more of it out.
Special thanks goes out to Dean Hanson (BPM Lead Guitarist) and my mate Dan for their help with the tab.

Intro/Main Riff/Verse:
e||------------------------------------------------------------------------------------------------|
B||------------------------------------------------------------------------------------------------|
G||------------------------------------------------------------------------------------------------|
D||------------------------------------------------------------------------------------------------|
A||--3------3-----3---2-2-5-4--2-2-5-4--3-----3------2-2-5-4--2-2-5-4--3--------2-2-5-4--2-2-5-4---|
E||----4-4---4-4---4----------------------4-4---4-4-----------------------44444--------------------|

Sick in the stomach
People are just people all the time
Eggshells and bottles
I'm dancing and I'm drinking like a mime

Pre-Chorus:
e|--------------------------------------------------------------------------|
B|--------------------------------------------------------------------------|
G|------------6-5---5-----5--------------------6-5---5-----5----------4-5---|
D|--------3-6------------------6--8--------3-6--------------------6-8-------|
A|--4---4---------6---6----6-8-------4---4---------6---6------6-8-----------|
E|--------------------------------------------------------------------------|

But hey, I could be dead or not
I could start up then stop
I could get photoshopped
Onto the front page of Time

Chorus:
C                         Fm
You give me papers I will sign
                           C#
It's gonna take at least a week to get back
   C#m
To get back to normal get back to normal get back to normal, hey

Main Riff/Verse:
e||------------------------------------------------------------------------------------------------|
B||------------------------------------------------------------------------------------------------|
G||------------------------------------------------------------------------------------------------|
D||------------------------------------------------------------------------------------------------|
A||--3------3-----3---2-2-5-4--2-2-5-4--3-----3------2-2-5-4--2-2-5-4--3--------2-2-5-4--2-2-5-4---|
E||----4-4---4-4---4----------------------4-4---4-4-----------------------44444--------------------|

Homes made of boxes
Of easy-to-assemble coupon-ettes
Layman in the castle
Is rushing constructivist invention


Pre-Chorus:
e|-------------------------------------------------------------------------|
B|-------------------------------------------------------------------------|
G|------------6-5--------5---------------------6-5--------5-----------4-5--|
D|--------3-6------------------6--8--------3-6------------------6--8-------| x2
A|--4---4-----------6------6-8-------4---4-----------6------6-8------------|
E|-------------------------------------------------------------------------|

But hey, I could be dead or not
I could start up then stop
We could be best of friends
Or adulterist scum in their beds
We could be dead or not
We could start up then stop
I could get photoshopped
Onto the front page of Time

Chorus:
C                         Fm
You give me papers I will sign
                           C#
It's gonna take at least a week to get back
   C#m
To get back to normal get back to normal get back to normal, hey

Bridge:
    Db          Eb
And I don't necessarily agree
     Ab      Eb/G         Fm
With all the stuff that's happening to me
    E               Ab
But cowards will be cowards
      Eb7
And a passing man on a horse won't notice shit

Main Riff/Outro:
e||------------------------------------------------------------------------------------------------|
B||------------------------------------------------------------------------------------------------|
G||------------------------------------------------------------------------------------------------|
D||------------------------------------------------------------------------------------------------|
A||--3------3-----3---2-2-5-4--2-2-5-4--3-----3------2-2-5-4--2-2-5-4--3--------2-2-5-4--2-2-5-4---|
E||----4-4---4-4---4----------------------4-4---4-4-----------------------44444--------------------|
Добавлено: 12.10.2015
Другие материалы по этой песне:
  • Аккорды и текст

Страница создана 12.10.2015
http://primanota.ru/ball-park-music/shithaus-chords.htm
Привет, Гость.
Предлагаем пройти революционный курс по гитаре.
Подарок от PrimaNota.Ru, забирай!