PrimaNota.ru - самый крупный в мире бесплатный архив песенных текстов, аккордов, табулатур и нот


Ball Park Music - Literally Baby - аккорды и текст, видео

Регистрация Запомнить меня
Войти через:  Facebook Google Twitter Vk Yandex Mail.ru

Ball Park Music - Literally Baby - аккорды и текст, видео

Печатать
Просмотров: 68
Literally Baby
Ball Park Music
Literally Baby – Ball Park Music

Intro (Drums and then):

Chords:      B               E             x2     
Tab:
           |:                               :|
e|---------|-----------------------|---------|
B|---------|-----------------------|---------|
G|---------|-----------------------|---------|
D|---------|-----------------------|---------|
A|---------|------5---5---5--7-7---|-7-------|
E|-19\\\\\\|-7\----5h7-5h7-7-------|---0-0-0-|


B(1)
I got shot straight out of a canon,
E(1)
Up into the air all the circus animals
B(1)                                                              E(1)
open their jaw and wave their shiny fangs at me as I fly down to you
B(8)               E(8)
So come on get on top
B(8)                  E(8)
Jump up and down for ever

Guitarmony Interlude:
Chords:

D(1)   G(1)   F#-F#  F#-F#*-F#*   F#*-Bm-Bm   D(1)   G(1)   F#(8)

Tab:  

Guitar 2 (Guitarmony)

 |:                                 | 1st time       :|  
e|----------------------------------|-----------------|------------|
B|-10-8-7-8-7---7-------7-------7---|--------------7-7|------------|
G|------------9---9-7-9---9-7-9---9-|6-6--6-9-9--9----|666699996666|
D|----------------------------------|-----------------|------------|
A|----------------------------------|-----------------|------------|
E|----------------------------------|-----------------|------------|


B(1)                                    
Elton John is not the perfect rifle but you
E(1)
Fire him good, you can make a miracle in 
B(1)                                 E(1)
her two hands let the little animal crawl into the room
B(8)              E(8)
So come on get on top
B(8)                 E(8)
Jump up and down for ever

[Chorus]
D(1)        G(1)              F#-F#     F#-F#*-F#   F#*-Bm-Bm
 Our bits smash together like fresh fruit in the sun
D(1)        G(1)              F#-F#     F#-F#*-F#   F#*-Bm-Bm
We’re not worried we’re just having fun
D(1)        G(1)              F#-F#     F#-F#*-F#   F#*-Bm-Bm
 Our bits smash together like fresh fruit in the sun
D(1)       G(1)             F#(16)
We’re not worried we’re just having fun……literally Baby

Solo (can type it up if requested)

Chords for Solo:  B(1)   E(1)   B(1)   E(1)

B(8)               E(8)
So come on get on top
B(8)                 E(8)
Jump up and down for ever

[Chorus]

[Intro] and finish on B

____________________________________________________________________

* bass plays A# on this chord

For BPM’s best fans: Tom and Geordie at Laugh and Learn
Добавлено: 30.04.2014
Другие материалы по этой песне:
  • Аккорды и текст

Страница создана 27.03.2014
http://primanota.ru/ball-park-music/literally-baby-chords.htm
Привет, Гость.
Предлагаем пройти революционный курс по гитаре.
Подарок от PrimaNota.Ru, забирай!