PrimaNota.ru - самый крупный в мире бесплатный архив песенных текстов, аккордов, табулатур и нот


Balkans - Troubled And Done - таба, видео

Регистрация Запомнить меня
Войти через:  Facebook Google Twitter Vk Yandex Mail.ru

Balkans - Troubled And Done - таба, видео

Печатать
Просмотров: 29
I know all of this except the chorus. I know the basis, but not exact. Did this by ear. Enjoy. c:

Intro:
e|-----------------------------------|
B|-----------------------------------|
G|----8--7-6------8--7-6------8--7-6-|
D|6-9---------6-9---------6-9--------|
A|-----------------------------------|
E|-----------------------------------|

e|--------------------------|
B|--------------------------|
G|-----8--7-6------66-4-----|
D|-6-9-----------------6-4--|
A|7-------------4-----------|
E|--------------------------| x4

Pre-Chorus?
e|---------------------------|
B|---------------------------|
G|----8--7-6--------6--4-----|
D|6-9-----------4-7-----7-6--|
A|---------------------------|
E|---------------------------| x4 (After the first time, this will repeat the last part four times after.)

Verse:
e|-----------------------------------------------|
B|-----------------------------------------------|
G|-----8--7-6-------8--7-6------66------66-4-----|
D|-6-9----------6-9-------------------------6-4--|
A|7------------7-------------4------44-----------| x4
E|-----------------------------------------------|

Chrous: (Chords)

E, C#, C, A

Bridge:
e|-------------------|
B|-------------------|
G|-------------------|
D|--4-6-----9-10-----|
A|3-----6-7------11--| x5 (On the sixth repeat, it only plays half and the cuts to the chorus.)
E|-------------------|
Добавлено: 30.11.2015
Другие материалы по этой песне:
  • Аккорды и текст

Страница создана 30.11.2015
http://primanota.ru/balkans/troubled-and-done-chords.htm
Привет, Гость.
Предлагаем пройти революционный курс по гитаре.
Подарок от PrimaNota.Ru, забирай!