PrimaNota.ru - самый крупный в мире бесплатный архив песенных текстов, аккордов, табулатур и нот


Balkans - Edita V - бас-таба, видео

Регистрация Запомнить меня
Войти через:  Facebook Google Twitter Vk Yandex Mail.ru

Balkans - Edita V - бас-таба, видео

Печатать
Просмотров: 40
--------------------------------------------------------------------------------------
Balkans- Edita V
--------------------------------------------------------------------------------------

This is my first tab, so it might be a bit sloppy, but I did my best.

Intro (Come in at 0:13) 
G|----------------------------|
D|----------------------------|
A|------7-7--5-5--------------| (x4)
E|----------------7-7--4---0--|

Verse

G|-----------------------------------------------------------|
D|-----------------------------------------------------------|
A|-----7-7--5-5-----------------55555555--/1010101010101010--|
E|---------------7-7--4444---0-------------------------------| (x3)

Pre-Chorus

G|-------------------------------------------------------------------------|
D|-------------------------------------------------------------------------|
A|-----7-7--5-5-----------------55555555--/101010101010101010101010101010--|
E|---------------7-7--4444---0---------------------------------------------|

Chorus
G|-----------------------------------------------------|
D|-----------------------------------7-----------------|
A|----7---------9----11----7--------------6------------|
E|---------9--------------------9----------------------| (x2; 2nd time, multiply notes)

Bridge
G|----8----------------| 
D|------9-----------9--| (x4)
A|---------666---------|
E|---------------------|

Post-Chorus (? I dunno what the hell it's called)

G|------------------------------------|
D|------------------------------------|
A|---13131313131313131313131313131313-| (x4)
E|------------------------------------|

G|-----------------------------------------------|
D|-----------------------------------------------|
A|-----------------------------------------------|
E|---14-14-14-14-14-14-14-13-14-14-14-14-14-13---| (x2)

G|--------------------------13-------------------------13--------------13---------13|
D|----------------------------------------------------------------------------------|
A|---1313131313-----------------1313131313-----------------1313131313---------------|
E|---------------1414141414-----------------1414141414---------------1414141414-----|

G|------------------------------|
D|------------------------------|
A|------------------------------|
E|----1414141414/-\1414141414---| (x4)

G|-------------------------------|
D|-------------------------------|
A|-------------------------------|
E|----1313131313/-\1313131313----|

Repeat Verse
G|-----------------------------------------------------------|
D|-----------------------------------------------------------|
A|-----7-7--5-5-----------------55555555--/1010101010101010--|
E|---------------7-7--4444---0-------------------------------| (x3)

Repeat Pre-chorus
G|-------------------------------------------------------------------------|
D|-------------------------------------------------------------------------|
A|-----7-7--5-5-----------------55555555--/101010101010101010101010101010--|
E|---------------7-7--4444---0---------------------------------------------|

Repeat Chorus
G|-----------------------------------------------------|
D|-----------------------------------7-----------------|
A|----7---------9----11----7--------------6------------|
E|---------9--------------------9----------------------| (x2; 2nd time, multiply notes)

Repeat Bridge
G|----8----------------| 
D|------9-----------9--| (x4)
A|---------666---------|
E|---------------------|
Добавлено: 30.11.2015
Вам также может быть интересно:
Другие материалы по этой песне:
  • Аккорды и текст

Страница создана 30.11.2015
http://primanota.ru/balkans/edita-v-chords.htm
Привет, Гость.
Предлагаем пройти революционный курс по гитаре.
Подарок от PrimaNota.Ru, забирай!