PrimaNota.ru - самый крупный в мире бесплатный архив песенных текстов, аккордов, табулатур и нот


Balkan Beat Box - Adir Adirim - таба, видео

Регистрация Запомнить меня
Войти через:  Facebook Google Twitter Vk Yandex Mail.ru

Balkan Beat Box - Adir Adirim - таба, видео

Печатать
Просмотров: 306
Уроки эстрадного вокала в Санкт-Петербурге
Bomb song, from the album Balkan Beat Box.
if you like these guys, you are amazing.

Main Riff (Plays Through Entire Song)
e|-----------------------------------------------------------------------------|
B|-----------------------------------------------------------------------------|
G|----------------------------------------------------------------------/7-3---|
D|-7-7---7--7-----5-7--7-7---7--7----5-7--7-7---7--7-----5-7--7-7---5-5------7-|
A|--------------7------------------7-------------------7-----------------------|
E|-----5-------------------5------------------5-------------------3------------|

Guitar Thing
e|--9-10-10/12-12-12-9-10-9-10----9-------------------------------------------------|
B|-----------------------------11---11-10-10-10-10/11-11-11-8-10-8-10----8----8-10--|
G|--------------------------------------------------------------------10---10-------|
D|----------------------------------------------------------------------------------|
A|----------------------------------------------------------------------------------|
E|----------------------------------------------------------------------------------|

Then it harmonizes
e|--12-13-13/15-15-15-12-13-12-13----12----12------------------------------------------------|
B|--------------------------------15----15----14-14-14-14/15-15-15-12-14-12-14----12---12-14-|
G|-----------------------------------------------------------------------------14----14------|
D|-------------------------------------------------------------------------------------------|
A|-------------------------------------------------------------------------------------------|
E|-------------------------------------------------------------------------------------------|

that's really about it.
keep rockin'
-fuperman
Добавлено: 20.07.2012
Другие материалы по этой песне:
  • Аккорды и текст

Страница создана 20.07.2012
http://primanota.ru/balkan-beat-box/adir-adirim-chords.htm
Привет, Гость.
Предлагаем пройти революционный курс по гитаре.
Подарок от PrimaNota.Ru, забирай!