PrimaNota.ru - самый крупный в мире бесплатный архив песенных текстов, аккордов, табулатур и нот


Balance And Composure - I Tore You Apart In My Head - таба, видео

Регистрация Запомнить меня
Войти через:  Facebook Google Twitter Vk Yandex Mail.ru

Balance And Composure - I Tore You Apart In My Head - таба, видео

Печатать
Просмотров: 138
-------------------------------------------------------------------------------
                             I TORE YOU APART IN MY HEAD - Balance And Composure
-------------------------------------------------------------------------------

This is a awesome song. This is how I play it, it's mostly the rhythm guitar. You can
figure out the rhythms these are just the notes. This is in standard tuning, if you want
to be tru3 you can play it a half step down, just shift everything else up and play the 
6688xx as 022xxx but I'm sure you're smart enough to figure that all out. Just in case.

Tuning:



e|----------------------------------------------------------|
B|----------------------------------------------------------|
G|--------------------------3-------------------------------|
D|--8-8-x-x-x-x-4-4-x-x-x-x-4-4-4-4-4-4-4-4-4-4-4-4-4-4-4-4-|
A|--8-8-x-x-x-x-4-4-x-x-x-x-4-4-4-4-4-4-4-4-4-4-4-4-4-4-4-4-|
E|--6-6-x-x-x-x-2-2-x-x-x-x-2-2-2-2-2-2-2-2-2-2-2-2-2-2-2-2-|
                              * * * * * * * * * * * * * * *

e|----------------------------------------------------------|
B|----------------------------------------------------------|
G|--------------------------5-------------------------------|
D|--8-8-x-x-x-x-4-4-x-x-x-x-6-6-6-6-6-6-6-6-6-6-6-6-6-6-6-6-|
A|--8-8-x-x-x-x-4-4-x-x-x-x-6-6-6-6-6-6-6-6-6-6-6-6-6-6-6-6-|
E|--6-6-x-x-x-x-2-2-x-x-x-x-4-4-4-4-4-4-4-4-4-4-4-4-4-4-4-4-|
                              * * * * * * * * * * * * * * *

e|------------------------------------------------------------------|
B|------------------------------------------------------------------|
G|------------------6-6-6-6---------8-8-8-8-8-8-8-------------------|
D|--8-8-8-8-4-4-4-4-6-6-6-6-6-6-6-6-8-8-8-8-8-8-8-6-6-6-6-6-6-6-6-6-|
A|--8-8-8-8-4-4-4-4-4-4-4-4-6-6-6-6-6-6-6-6-6-6-6-6-6-6-6-6-6-6-6-6-|
E|--6-6-6-6-2-2-2-2-4-4-4-4-4-4-4-4-6-6-6-6-6-6-6-4-4-4-4-4-4-4-4-4-|

Play all this twice for the "I tore you apart in my HEAADDDD" parts. You can play the
X's as the chords before it, I always do hits on the 3rd fret harmonic along with the
snare, you also don't have to palm mute, but that's what I do. You have to build it up though.

e|-----------------------------------------------------------------------------------|
B|--6----------------------2---------------------------------------------------------|
G|--6----------------------3---------------------------------------------------------|
D|--8----------------------4--------------------------(6)-8-8-8-8-4-4-4-4------------|
A|--8----------------------4--------------------------(6)-8-8-8-8-4-4-4-4------------|
E|--6----------------------2--------------------------(4)-6-6-6-6-2-2-2-2------------|
   ^ Drag these chords out ^              *STOP CHORD*

I think you do that 4 or so times. You can strum the chords around the 2nd or 3rd time
but you want that feel still. On the last time you just go:

e|---------------|
B|---------------|
G|---------------|
D|-8-8-8-8-4-----|
A|-8-8-8-8-4-----|
E|-6-6-6-6-2-----|

And hold the F# (244xxx)

After that you just play the A#m (68866x) and F# (24432x) until the part before the
second heavy part where you go A#m, G# (46654x), F# and then go write into the beginning part.

After that it's pretty much 6 hits on A#m and then holding the F#

This is the basic idea. I may edit later.
Добавлено: 25.06.2013
Другие материалы по этой песне:
  • Аккорды и текст

Страница создана 25.06.2013
http://primanota.ru/balance-and-composure/i-tore-you-apart-in-my-head-chords.htm
Привет, Гость.
Предлагаем пройти революционный курс по гитаре.
Подарок от PrimaNota.Ru, забирай!