PrimaNota.ru - самый крупный в мире бесплатный архив песенных текстов, аккордов, табулатур и нот


Balance And Composure - Burden - таба, видео

Регистрация Запомнить меня
Войти через:  Facebook Google Twitter Vk Yandex Mail.ru

Balance And Composure - Burden - таба, видео

Печатать
Просмотров: 188
Уроки эстрадного вокала в Санкт-Петербурге
Band: Balance And Composure
Song: Burden
Album: Balance And Composure/Tigers Jaw Split
Tabbed by: fr3shb4ng


Hey folks,

Couldn't find tabs for this song anywhere, so I gave it a try!
Tab is still under construction. Second part of the song should
follow as soon as I find the time.
Feel free to help me out with this one! Your support is appreciated!

Anyways, have fun with the first section!



Riff 1 - Intro

e|---------------------------------------------|
B|--4-4-4-4-4--2-2--0--4-4-4--7-7--2--2/4\2p0--|
G|--2-2-2-2-2--0-0--0--5-5-5--5-5--0--0--------|
D|---------------------------------------------|
A|---------------------------------------------|
E|---------------------------------------------|

Riff 2

e|--------------------------------------------|
B|--------------------------------------------|
G|------0-------0-2/4\2p0---------------------|
D|--0h2---2-5-5-------------------------------|
A|--------------------------------------------|
E|--------------------------------------------|

Riff 3

e|--------------------------------------------|
B|--------------------------------------------|
G|--------------2/4\2p0-----------------------|
D|--2-2-2-5-5-5-------------------------------|
A|--2-2-2-5-5-5-------------------------------|
E|--0-0-0-3-3-3-------------------------------|

Riff 4

e|--------------------------------------------|
B|--------------------------------------------|
G|--------------------77777777-55555555-------|
D|--22222222-55555555-77777777-55555555-------|
A|--22222222-55555555-55555555-33333333-------|
E|--00000000-33333333-------------------------|



00:00 "Don't let, don't let it go..." -> Riff 1

01:12 "And you should have seen..."   -> Riff 2

01:39 "And I won't forget..."         -> Riff 3

02:07 "If I could see the hatred..."  -> Riff 4

02:48 "And I won't forget..."         -> Riff 3 (variations)



Lyrics:

Don't let, don't let it go to your head.
For now you are victorious but soon to dread.
The thought of your actions, with such raged passion.
She's basically dead on the cold cement.

And you should have seen the way my eyes burned in disbelief.
And I will let them heat, until the flames burst on right out of me,
hard to believe it.
And I won't forget about the burden buried deep inside my chest.
And I can forget the night I destroyed both of our heads.

If I could see the hatred that was burning through your eyes,
the I would have to go alone and cast myself as a sacrifice.
hit and run,don't deny,
she loved you to death you tried to take her life.
Close enough, but don't be proud,
see what happens when tomorrow come round.

If I was to say that love is what makes us aim to kill,
then I'd aim it toward the sky, cause we don't know why
or what can make us feel.

And I won't forget about the burden buried deep inside my chest.
And I can't forget the night I destroyed both of our heads.

She, she cannot speak.
Does it tear you apart at night while you sleep?
And I, I really need to know
cause there's a fire burning up in me and I'm about to blow.
And heat, do you feel heat?
Cause I'm creeping up the side of your bed and onto the sheets.
And burn, won't you let it burn?
You've destroyed some many lives and now it's your turn.
And weep, I hope to god you weep.
You can dig away at your heart, but it's far too deep.
Добавлено: 20.06.2013
Другие материалы по этой песне:
  • Аккорды и текст

Страница создана 20.06.2013
http://primanota.ru/balance-and-composure/burden-chords.htm
Привет, Гость.
Предлагаем пройти революционный курс по гитаре.
Подарок от PrimaNota.Ru, забирай!