PrimaNota.ru - самый крупный в мире бесплатный архив песенных текстов, аккордов, табулатур и нот


Балабама - Весна - аккорды и текст, видео

Регистрация Запомнить меня
Войти через:  Facebook Google Twitter Vk Yandex Mail.ru

Балабама - Весна - аккорды и текст, видео

Печатать
Просмотров: 1759
Весна
Балабама
Проигрыш:
 
H||--10--6--8---10--6--8---10--6--8--8-6-8-10-11-8-10----8--------|
G||---------------------------------------------- -----10---9-10-7-|

Вся песня играется так:
B C
E||-------------------1-----|-------------------0-----|
H||-----------3----------3--|-----------1----------1--|
G||--------3-------3--- -----|--------0-------0--------|
D||-----3-------------------|-----2-------------------|
A||--1----------------------|--3----------------- -----|
E||-------------------------|-------------------------|

A Dm C
E||-------------------0-----|--------1-----------0-----|
H||-----------2----------2--|-----------3-----------1--|
G||--------2-------2- -------|-----2-----------0--------|
В||-----2-------------------|--0-----------------------|
A||--0----------------------|--------------3- ----------|
E||-------------------------|--------------------------|

1 куплет

B
C A
Утро, вечер, день и ночь,
Dm C B
Больные сны и тлеет время,
C A
Вечер, шепот, холод, дождь,
Dm C B
Стеклянный город на мгновение.
C A
Утро, черствая вода,
Dm C B
Сжимает дождь,но он растает
C A
И разорвутся холода
Dm C B C
И наконец, она настанет.

Припев:

2 гитара:

H||--10--6--8---10--6--8---10--6--8--8-6-8-10-11-8-10----8--------|
G||---------------------------------------------------10---9 -10-7-|

1 гитара:

A Dm C B C
Весна-а-а-а,
Весна-а-а-а.

Проиграш:

2 куплет

В сердце пряный красный сок
Размоет землю под ногами.
Новый выход, новый вдох,
Его не описать словами.
Первый шаг навстречу ей,
Ты слышал как она шептала.
И разорвались холода,
И наконец, она настала.

Припев:

Весна-а-а-а, Весна-а-а-а, Весна-а-а-а.
D F G
Весна-а-а, Весна-ла-ла-ла, ла-ла-ла-ла-лей
D F G
Весна-ла-ла-ла, ла-ла-ла-ла-лей,
F G F G
ла-ла-ла-ла-лей, ла-ла-ла-ла-лей.

3 куплет:

Брызги света бьют в глаза,
Весенний ливень обжигает.
Небо теплая слеза,
Внутри дыхание разрывает.
Закипает в жилах кровь,
Идут секунды в тишине-е-е.
И обнажается любовь,
И наконец, она во мне-е-е.

Припев:

Весна, Весна-а-а-а.
Весна, Весна-а-а-а.
Весна, Весна-а-а-а.
Добавлено: 09.04.2014
Другие материалы по этой песне:

Страница создана 06.06.2012
http://primanota.ru/balabama/vesna-chords.htm
Привет, Гость.
Предлагаем пройти революционный курс по гитаре.
Подарок от PrimaNota.Ru, забирай!