PrimaNota.ru - самый крупный в мире бесплатный архив песенных текстов, аккордов, табулатур и нот


Bal-sagoth - Naked Steel The Warriors Saga - таба, видео

Регистрация Запомнить меня
Войти через:  Facebook Google Twitter Vk Yandex Mail.ru

Bal-sagoth - Naked Steel The Warriors Saga - таба, видео

Печатать
Просмотров: 38
-------------------------------------------------------------------------------
              Bal-Sagoth - Naked Steel (The Warrior's Saga) 
-------------------------------------------------------------------------------
Tabbed by:guiguig
E-mail:

Tuning:1/2 step down

Intro                                   x2
e|-----------------------------------------|
B|-----------------------------------------|
G|-----------------------------------------|
D|-----------------------------------------|
A|------7---------10-------7---6-6-6-------|
E|--7-7-----10-10------7-7---------4-------|
    . .     .  .       . .     . .

                                                       x4
e|-------------------------------------------------------|
B|-------------------------------------------------------|
G|-------------------------------------------------------|
D|-----9---7--6------------7-------------7-----9--9------|
A|-----7---5--4---------4--5--5--7--9--7-5--9--7--7------|
E|-7-7------------5--7----------------------7--------0---|
   . .            .  .  .     .  .  .  .             .


e|-----------------------------------------------------------|
B|-----------------------------------------------------------|
G|-----------------------------------------------------------|
D|------9---7--4-------------7--5--4----------5--4--3-----4--|
A|------7---5--6----------4--5--3--2-------2--3--2--1--4--2--|
E|-7-7-------------5--7---------------3--5-------------2-----|
   . .             .  .   .           .  . .

Verse 1 (00:44)                                                                         x2
e|----------------------------------------------------------------------------------|
B|----------------------------------------------------------------------------------|
G|----------------------------------------------------------------------------------|
D|-------6tp-4tp-3tp--3tp--------------------------------6tp-4tp-3tp---3tp----------|
A|---4tp------------6tp---4tp-6tp-4tp-3---3-----------4tp-----------6tp----4-4/6-6-~|
E|6tp----------------------------------6---4-------6tp------------------------------|

(01:04)                                                           x2
e|--------------------------------------------------------------------|
B|--------------------------------------------------------------------|
G|--------------------3-----------------------------------------------|
D|--------4-4-4---------6-4-6-4-3-----------3-3-3------3-2------------|
A|----6-6-6-6-6-0-0---------------------5-5-5-5-5-0-0-----5-4-5-------|
E|--------------------------------------------------------------5-~---|
      . .       . .     . . . . .       . .       . .  . . . .    

Verse 2 (01:13)
e|----------------------------------------------------------------------------------|
B|----------------------------------------------------------------------------------|
G|----------------------------------------------------------------------------------|
D|-------6tp-4tp-3tp--3tp--------------------------------6tp-4tp-3tp---3tp----------|
A|---4tp------------6tp---4tp-6tp-4tp-3---3-----------4tp-----------6tp----4-4/6-6-~|
E|6tp----------------------------------6---4-------6tp------------------------------|

e|----------------------------------------------------------------------------------|
B|----------------------------------------------------------------------------------|
G|----------------------------------------------------------------------------------|
D|-------6tp-4tp-3tp--3tp--------------------------------6tp-4tp-3tp---3tph-3h4--3--|
A|---4tp------------6tp---4tp-6tp-4tp-3---3-----------4tp-----------6tp--------6----|
E|6tp----------------------------------6---4-------6tp------------------------------|

(01:32)                                                           x4
e|--------------------------------------------------------------------|
B|--------------------------------------------------------------------|
G|--------------------3-----------------------------------------------|
D|--------4-4-4---------6-4-6-4-3-----------3-3-3------3-2------------|
A|----6-6-6-6-6-0-0---------------------5-5-5-5-5-0-0-----5-4-5-------|
E|--------------------------------------------------------------5-~---|
      . .       . .     . . . . .       . .       . .  . . . .    

Verse 3 (01:52)
e|----------------------------------------------------------------------------------|
B|----------------------------------------------------------------------------------|
G|----------------------------------------------------------------------------------|
D|-------6tp-4tp-3tp--3tp--------------------------------6tp-4tp-3tp---3tp----------|
A|---4tp------------6tp---4tp-6tp-4tp-3---3-----------4tp-----------6tp----4-4/6-6-~|
E|6tp----------------------------------6---4-------6tp------------------------------|

e|---------------------------------------------------------------------------|
B|---------------------------------------------------------------------------|
G|---------------------------------------------------------------------------|
D|--------6--4+--3----3+--------------------------6-4+-3---3---3h4----3-~----|
A|-----4------------6----4--6--4-3---3----------4--------6----------6--------|
E|--6------------------------------6---4------6------------------------------|

Intro riff (02:11)                      x2
e|-----------------------------------------|
B|-----------------------------------------|
G|-----------------------------------------|
D|-----------------------------------------|
A|------7---------10-------7---6-6-6-------|
E|--7-7-----10-10------7-7---------4-------|
    . .     .  .       . .     . .

(02:20)
e|-----------------------------------------------------------------|
B|-----------------------------------------------------------------|
G|-----------------------------------------------------------------|
D|----9---7-6----------7---5-4-----------5---4-3----------4---2-2--|
A|----7---5-4-------4--5---3-2--------2--3---2-1-------0--2---0-0--|
E|-7-----------5--7-------------3--5--------------0--3-------------|

e|--------------------------|
B|--------------------------|
G|--------------------------|
D|--------9--8--11----------|
A|--5--4--7--6--9--10--9----|
E|--3--2--7--6--9--8---7----|

(02:34)                  x4
e|--------------------------|
B|--------------------------|
G|--------------------------|
D|--9tp---10tp---9tp---8tp--|
A|--------------------------|
E|--------------------------|

e|-------------------|
B|-------------------|
G|-------------------|
D|-------------------|
A|--7---7---7---7----|
E|----7---7---7---7--|
      .   .   .   .

Instrumental part (02:40)
e|-----------------------------------------------------------------|
B|-----------------------------------------------------------------|
G|-----------------------------------------------------------------|
D|-------------4-~--4--5-7+-4--5+-~-----/5~---4--5/7--5--5--4--5+~-|
A|-/7-~--7--7-----------------------5\------7----------------------|
E|-----------------------------------------------------------------|

e|-----------------------------------------------------------------|
B|-----------------------------------------------------------------|
G|-----------------------------------------------------------------|
D|-------------4-~--4--5-7+-4--5+-~-----/5~---4--5/7--5--5--4--5+~-|
A|-/7-~--7--7-----------------------5\------7----------------------|
E|-----------------------------------------------------------------|

(03:05)
e|----12--------------------------------------------------------------|
B|-------15-12-12-------13-12---12------------------------------------|
G|-11-------------14-12-------14--14-12-11----11-~-------11-12/14-~---|
D|-----------------------------------------14------12-14--------------|
A|--------------------------------------------------------------------|
E|--------------------------------------------------------------------|

e|-------12-----------------------------------------------------------|
B|--15-~----12-------13-12---12----------------------12---------------|
G|-------------14-12-------14--14-12-11----11-~----------14-~---------|
D|--------------------------------------14------12-14-----------------|
A|--------------------------------------------------------------------|
E|--------------------------------------------------------------------|

(03:25)
e|-----------------------------------------------------------------|
B|-----------------------------------------------------------------|
G|-----------------------------------------------------------------|
D|-------------4-~--4--5-7+-4--5+-~-----/5~---4--5/7--5--5--4--5+~-|
A|-/7-~--7--7-----------------------5\------7----------------------|
E|-----------------------------------------------------------------|

e|-----------------------------------------------------------------|
B|-----------------------------------------------------------------|
G|-----------------------------------------------------------------|
D|-------------4-~--4--5-7+-4--5+-~-----/5~---4--5/7--5--5--4--5+~-|
A|-/7-~--7--7-----------------------5\------7----------------------|
E|-----------------------------------------------------------------|

Verse 4 (03:52)
e|----------------------------------------------------------------------------------|
B|----------------------------------------------------------------------------------|
G|----------------------------------------------------------------------------------|
D|-------6tp-4tp-3tp--3tp--------------------------------6tp-4tp-3tp---3tp----------|
A|---4tp------------6tp---4tp-6tp-4tp-3---3-----------4tp-----------6tp----4-4/6-6-~|
E|6tp----------------------------------6---4-------6tp------------------------------|


(04:02)
e|-------------------------------------------------------------------------------|
B|-------------------------------------------------------------------------------|
G|-------------------------------------------------------------------------------|
D|--------7--5+--4----4+----------------------------7--5+-4----4---4h5----4-~----|
A|-----5------------7----5--7--5--4---4-----------5---------7----------7---------|
E|--7-------------------------------7---5------7---------------------------------|

Ending (04:11)                x4
e|-------------------------------|
B|-------------------------------|
G|-------------------------------|
D|-------------------------------|
A|-9---7-------------------------|
E|-7---5--7-7-7----7-7-7-7-7-7---|
          . . .    . . . . . .
(04:16)
e|----------------------------------------------|
B|---------------------------------7/8-7+~------|
G|----------------6-7-9---6~---7-9---------6~---|
D|-12-11--9-----9-------9-----------------------|
A|-10--9--7-------------------------------------|
E|-10--9--7-------------------------------------|

(04:21)                      x4
e|-------------------------------|
B|-------------------------------|
G|-------------------------------|
D|-------------------------------|
A|-9---7-------------------------|
E|-7---5--7-7-7----7-7-7-7-7-7---|
          . . .    . . . . . .

(04:26)                                           x4
e|----------------------------------------------------|
B|----------------------------------------------------|
G|----------------------------------------------------|
D|-9-12-11-12----12-11-12----12-11-12----12-11-12-----|
A|------------12----------10----------10--------------|
E|----------------------------------------------------|
   . .  .  .   .  .  .  . .   . .   .  .  . .   .

(04:35)
e|---------------------|
B|---------------------|
G|---------------------|
D|-4------4-4------4---|
A|-2--4---2-2------2---|
E|----2----------------|

************************************

| /   slide up
| \   slide down
| h   hammer-on
| p   pull-off
| ~   vibrato
| +   harmonic
| x   Mute note
| b   Bend
| pb  Pre-bend
| br  Bend release
| pbr Pre-bend release
| brb Bend release bend
| .   Palm mute
| tp  Tremolo Picking
************************************
Добавлено: 23.05.2016
Другие материалы по этой песне:
  • Аккорды и текст

Страница создана 23.05.2016
http://primanota.ru/bal-sagoth/naked-steel-warriors-saga-chords.htm
Привет, Гость.
Предлагаем пройти революционный курс по гитаре.
Подарок от PrimaNota.Ru, забирай!