PrimaNota.ru - самый крупный в мире бесплатный архив песенных текстов, аккордов, табулатур и нот


Bakshish - Nowa Sytuacja - бас-таба, видео

Регистрация Запомнить меня
Войти через:  Facebook Google Twitter Vk Yandex Mail.ru

Bakshish - Nowa Sytuacja - бас-таба, видео

Печатать
Просмотров: 89
Song: Nowa Sytuacja
Artist: Bakshish (www.bakshish.art.pl)
Tabbed by: karq@interia.pl

BASS:

there are 4 riffs

1:
e|2-225----------52-2250-2--------2-225----------52-2250-2--------|
a|-----2-4----242----------------------2-4----242-----------------|
d|----------------------------------------------------------------|
g|----------------------------------------------------------------|

2:
e|2-2-2-202-2-20202-2-2-202-2-2--52-2-2-202-2-20202-2-2-202-2-2--5|
a|-----------------------------24------------------------------24-|
d|----------------------------------------------------------------|
g|----------------------------------------------------------------|

3:
e|----------------------------------------------------------------|
a|2------24------45------54------42------24------45------54------4|
d|---4--4----6--6----7--7----6--6----4--4----6--6----7--7----6--6-|
g|----44------66------77------66------44------66------77------66--|

4:
e|------------------------------------------------------------2---|
a|--44--44--44--42--44--44--44--42--44--44--44--42--44--44--42-/7\|
d|44--44--44--44--44--44--44--44--44--44--44--44--44--44--44---4--|
g|----------------------------------------------------------------|

and they are going in this direction:
11222233422233122-2424...dub...dub...session!

     
Добавлено: 10.08.2013
Другие материалы по этой песне:
  • Аккорды и текст

Страница создана 10.08.2013
http://primanota.ru/bakshish/nowa-sytuacja-chords.htm
Привет, Гость.
Предлагаем пройти революционный курс по гитаре.
Подарок от PrimaNota.Ru, забирай!