PrimaNota.ru - самый крупный в мире бесплатный архив песенных текстов, аккордов, табулатур и нот


Bahamas - Your Sweet Touch - аккорды и текст, таба, видео

Регистрация Запомнить меня
Войти через:  Facebook Google Twitter Vk Yandex Mail.ru

Bahamas - Your Sweet Touch - аккорды и текст, таба, видео

Печатать
Просмотров: 106
Your Sweet Touch
Bahamas
SONG:   YOUR SWEET TOUCH
ARTIST: BAHAMAS
TAB BY: DON CZARSKI
EMAIL:  GUITARZAN7@HOTMAIL.COM

                YOUR SWEET TOUCH
                     BAHAMAS

INTRO:

  *Am
E -5--7-5------
B -5------8-5--
G -5-----------
D -7-----------
A -7-----------
E -5-----------

VERSE:
*Am
Tell me what to say 
   *Am
To make it go away 
         G*
And I'll do that

   G*
E -3-3-3----------
B -3-3-3----------
G -4-4-4-4h5p4----
D -5-5-5-------5--
A -5-5-5----------
E -3-5-5----------

*Am
Tell me what to do 
   *Am
To make it up to you 
         G*            G A B
And I'll do that too


CHORUS:
 C             Am
Time means so much 
          G                  Em
If all I have is your sweet touch
           C
And so it goes, 
           Am
And so it goes, 
                Cm         G
Which way I'll never ever know


INSTRUMENTAL:
   Am
E -5--7-5------
B -5------8-5--
G -5-----------
D -7-----------
A -7-----------
E -5-----------
                  Yah de yah de da

   Am
E -5--7-5------
B -5------8-5--
G -5-----------
D -7-----------
A -7-----------
E -5-----------                     Am  G
                  Yah de yah de da

   Am
E -5--7-5------
B -5------8-5--
G -5-----------
D -7-----------
A -7-----------
E -5-----------
                  Yah de yah de da

   Am
E -5--7-5------
B -5------8-5--
G -5-----------
D -7-----------
A -7-----------
E -5-----------                      Am  G
                  Yah de yah de da



VERSE:
Am
Do I hold you back 
   Am
In all the ways I lack 
          G
What ya need dear
     Am
And headed toward the end 
          Am
You were looking for a friend 
               G       G A B
And that ain't me dear


CHORUS:
 C             Am
Time means so much 
          G                  Em
If all I have is your sweet touch
           C
And so it goes, 
           Am
And so it goes, 
                Cm         G
Which way I'll never ever know


INSTRUMENTAL:
   Am
E -5--7-5------
B -5------8-5--
G -5-----------
D -7-----------
A -7-----------
E -5-----------
                  Yah de yah de da

   Am
E -5--7-5------
B -5------8-5--
G -5-----------
D -7-----------
A -7-----------
E -5-----------                     Am  G
                  Yah de yah de da


   Am
E -5--7-5------
B -5------8-5--
G -5-----------
D -7-----------
A -7-----------
E -5-----------
                  Yah de yah de da

   Am
E -5--7-5------
B -5------8-5--
G -5-----------
D -7-----------
A -7-----------
E -5-----------                      Am  G   G A B
                  Yah de yah de da


OUTRO:  (SOLO OVER THESE CHORDS)
Am Am G
Am Am G
Am Am G
Am Am G
Am Am G
Am Am G
Am Am G
Am Am G
*Am *Am G
*Am *Am G
Добавлено: 21.08.2015
Другие материалы по этой песне:
  • Аккорды и текст

Страница создана 21.08.2015
http://primanota.ru/bahamas/your-sweet-touch-chords.htm
Привет, Гость.
Предлагаем пройти революционный курс по гитаре.
Подарок от PrimaNota.Ru, забирай!