PrimaNota.ru - самый крупный в мире бесплатный архив песенных текстов, аккордов, табулатур и нот


Bahamas - Never Again - таба, видео

Регистрация Запомнить меня
Войти через:  Facebook Google Twitter Vk Yandex Mail.ru

Bahamas - Never Again - таба, видео

Печатать
Просмотров: 142
                        <+> CAPO 4 <+> (strum chords in an up-strum(from bottom to up) motion)


(VERSE 1)

Loosen your mind, open back up to me. We would be fine,if this were not up to me.
What can I do? What can I do for you? I'll do all that I can, all that you'll let me do.

E|-------0---------0-----------------|---0------0--|----0-|-----0--------0-------------|
B|-------0---------0-----------------|---0------0--|----1-|-----0--------0-------------|
G|-------4---------4-----------------|---5------5--|----2-|-----4--------4-------------|
D|-------5---------5-----------------|---5------5--|----2-|-----5--------5-------------|
A|-------5---------5-----------------|-3----3-3----|-0----|-----5--------5-------------|
E|----3------3--3--------------------|-------------|------|---3------3-3---------------|

(CHORUS)
Never again, never again will I let you go.
Never again, never again will I let you go.
E|--0------|----0--------|-----0--------0--------------|
B|--0------|----1--------|-----0--------0--------------|
G|--5------|----2--------|-----4--------4--------------|
D|--5------|----2--------|-----5--------5--------------|
A|--3------|----0--------|-----5--------5--------------|
E|---------|----0--------|---3------3-3----------------|

(VERSE 2)
You turned around,you turned around on me.You changed your mind,for something you found 
in me.
E|-------0---------0-----------------|---0------0--|----0-|-----0--------0--------------|
B|-------0---------0-----------------|---0------0--|----1-|-----0--------0--------------|
G|-------4---------4-----------------|---5------5--|----2-|-----4--------4--------------|
D|-------5---------5-----------------|---5------5--|----2-|-----5--------5--------------|
A|-------5---------5-----------------|-3----3-3----|-0----|-----5--------5--------------|
E|----3------3--3--------------------|-------------|------|---3------3-3----------------|

(BACK TO CHORUS)
THEN FADE WITH=
Never again, never again.Wow woo wha wha woo wha ha wa ha
Never again, never again.Wow woo wha wha woo wha ha wa h

e|-------------------------|-----------------------|-------------------------------------|
B|-------0--------------(0)|------0------------(0)-|-------0-------------(0)-------------|
G|---0h2----2-0-------0----|-0h2----2-0-------0----|--0h2----2-0-------0-----------------|
D|--------------2-0-2------|------------2-0-2------|-------------2-0-2-------------------|
A|-------------------------|-3---------------------|--0----------------------------------|
E|---3---------------------|-----------------------|-------------------------------------|
       (x2)                     (x2)                    (x2)
Добавлено: 14.07.2013
Другие материалы по этой песне:
  • Аккорды и текст

Страница создана 14.07.2013
http://primanota.ru/bahamas/never-again-chords.htm
Привет, Гость.
Предлагаем пройти революционный курс по гитаре.
Подарок от PrimaNota.Ru, забирай!