PrimaNota.ru - самый крупный в мире бесплатный архив песенных текстов, аккордов, табулатур и нот


Bahamas - Like A Wind - таба, видео

Регистрация Запомнить меня
Войти через:  Facebook Google Twitter Vk Yandex Mail.ru

Bahamas - Like A Wind - таба, видео

Печатать
Просмотров: 110
Авторы: Afie Jurvanen

-------------------------------------------------------------------------------
                             Like A Wind - Bahamas
-------------------------------------------------------------------------------
Tabbed by: Mathijs Terranea
E-mail: contactmathijs@hotmail.com

Tuning: Standard - Capo 2


---INTRO-PART---

  G           Em          G           Em         
e|-------------------------------------------------|
B|----0-----------0-----------0-----------0--------|
G|----0-----------0--0--------0-----------0--0-----|
D|----0-----4-----4----4-0----0-----4-----4----4-2-|
A|--------2-----------------------2----------------|
E|3-----------0-----------3-----------0------------|

  C           Am          C           Am         
e|----------0-----------------------0--------------|    2x
B|----0-0-3---0---------------0-0-3---0------------|
G|----0-------------2---0-----0--------------------|
D|----2-----------------------0--------------------|
A|3-----------0-------0---3-----------0------------|
E|-------------------------------------------------|    


---VERSE-1---

  G           Em          G           Em         
e|-------------------------------------------------|
B|----0-----------0-----------0-----------0--------|
G|----0-----------0--0--------0-----------0--0-----|
D|----0-----4-----4----4-0----0-----4-----4----4-2-|
A|--------2-----------------------2----------------|
E|3-----------0-----------3-----------0------------|

Be yourself        
I want no one else      
And if you're sad

  C           Am          C           Am         
e|----------0-----------------------0--------------|
B|----0-0-3---0---------------0-0-3---0------------|
G|----0-------------2---0-----0--------------------|
D|----2-----------------------0--------------------|
A|3-----------0-------0---3-----------0------------|
E|-------------------------------------------------| 

Just let it out dear please
Just let it out

  G           Em          G           Em         
e|-------------------------------------------------|
B|----0-----------0-----------0-----------0--------|
G|----0-----------0--0--------0-----------0--0-----|
D|----0-----4-----4----4-0----0-----4-----4----4-2-|
A|--------2-----------------------2----------------|
E|3-----------0-----------3-----------0------------|

By your side and still you hide      
Hide it all

  C           Am          C           Am          C
e|----------0-----------------------0-----------------------0------------| 
B|----0-0-3---0---------------0-0-3---0---------------0-0-3---0----------|
G|----0-------------2---0-----0-----------------------0------------2---0-|
D|----2-----------------------0-----------------------2------------------|
A|3-----------0-------0---3-----------0-----------3-----------0------0---|
E|-----------------------------------------------------------------------| 
Just let it out dear please
Just let it out


---CHORUS-1---

Em     Am Em      G
Moved me  like a wind

    Em     D      G   C
And shook me when you blew in

Em    Am  Em       G       
All winds someday change
            Em     D      G  C    Am
Before they blow in cold and strange


---INTRO-PART---

  G           Em          G           Em         
e|-------------------------------------------------|
B|----0-----------0-----------0-----------0--------|
G|----0-----------0--0--------0-----------0--0-----|
D|----0-----4-----4----4-0----0-----4-----4----4-2-|
A|--------2-----------------------2----------------|
E|3-----------0-----------3-----------0------------|

  C           Am          C           Am         
e|----------0-----------------------0--------------|    2x
B|----0-0-3---0---------------0-0-3---0------------|
G|----0-------------2---0-----0--------------------|
D|----2-----------------------0--------------------|
A|3-----------0-------0---3-----------0------------|
E|-------------------------------------------------|    


---VERSE-2---

  G           Em          G           Em         
e|-------------------------------------------------|
B|----0-----------0-----------0-----------0--------|
G|----0-----------0--0--------0-----------0--0-----|
D|----0-----4-----4----4-0----0-----4-----4----4-2-|
A|--------2-----------------------2----------------|
E|3-----------0-----------3-----------0------------|

Laugh it off, if you're feeling soft
And let me in

  C           Am          C           Am         
e|----------0-----------------------0--------------|    2x
B|----0-0-3---0---------------0-0-3---0------------|
G|----0-------------2---0-----0--------------------|
D|----2-----------------------0--------------------|
A|3-----------0-------0---3-----------0------------|
E|-------------------------------------------------| 
And let it out dear please
And let it out
Just let it out dear please
Just let it out


---CHORUS-2---

Em     Am Em      G
Moved me  like a wind

    Em     D      G   C
And shook me when you blew in

Em    Am  Em       G       
All winds someday change
            Em     D      G  C    Am
Before they blow in cold and strange

Em       Am   Em         G
Searching for something clear
                Em   D   G   C
Seems like it's anywhere but here

And now your eyes are open when we're kissing
                 
            Em   D         G       C     Am
Forever wondering what you might be missing


---OUTRO---

  G           Em          G        
e|--------------------------|
B|----0-----------0---------|
G|----0-----------0--0------|
D|----0-----4-----4----4-0--|
A|--------2-----------------|
E|3-----------0-----------3-|


************************************
Добавлено: 21.08.2015
Другие материалы по этой песне:
  • Аккорды и текст

Страница создана 21.08.2015
http://primanota.ru/bahamas/like-a-wind-chords.htm
Привет, Гость.
Предлагаем пройти революционный курс по гитаре.
Подарок от PrimaNota.Ru, забирай!