PrimaNota.ru - самый крупный в мире бесплатный архив песенных текстов, аккордов, табулатур и нот


Bahamas - All Ive Ever Known - таба, видео

Регистрация Запомнить меня
Войти через:  Facebook Google Twitter Vk Yandex Mail.ru

Bahamas - All Ive Ever Known - таба, видео

Печатать
Просмотров: 41
Авторы: Afie Jurvanen

-------------------------------------------------------------------------------
                             ALL I'VE EVER KNOWN - Bahamas
-------------------------------------------------------------------------------
Tabbed by: Erik Van Newenhizen
E-mail: erikvannewenhizen@comcast.net

Tuning: Standard

This is the riff played in the beginning and throughout the song by the lead guitar:

e|---------------------------------------------------------------------------|
B|---------------------------------------------------------------------------|
G|--------2~~--------------------2~~-----------------------------------------|  
D|-3-2-3------0-0~~~~------3-2-3------2-2~~~~--------------------------------|
A|---------------------------------------------------------------------------|
E|---------------------------------------------------------------------------|

e|---------------------------------------------------------------------------|
B|---------------------------------------------------------------------------|
G|--------2~~----------------------------------------------------------------|  
D|-3-2-3------0-0~~~~------3-2-3---------------------------------------------|
A|--------------------------------3~~-3h5------------------------------------|
E|---------------------------------------------------------------------------|

Later, the same pattern is played, except 1 or 2 octaves up, like so:

e|---------5~~---------------------5~~---------------------------------------|
B|-6-5-6------3-3~~~~------6-5-6------5-5~~~~--------------------------------|
G|---------------------------------------------------------------------------|
D|---------------------------------------------------------------------------|
A|---------------------------------------------------------------------------|
E|---------------------------------------------------------------------------|

e|---------5~~---------------------------------------------------------------|
B|-6-5-6------3-3~~~~------6-5-6---------------------------------------------|
G|--------------------------------5~~~5h7------------------------------------|
D|---------------------------------------------------------------------------|
A|---------------------------------------------------------------------------|
E|---------------------------------------------------------------------------|



************************************

| /   slide up
| \   slide down
| h   hammer-on
| p   pull-off
| ~   vibrato
| +   harmonic
| x   Mute note
| b   Bend
| pb  Pre-bend
| br  Bend release
| pbr Pre-bend release
| brb Bend release bend

************************************
Добавлено: 23.06.2016
Другие материалы по этой песне:
  • Аккорды и текст

Страница создана 23.06.2016
http://primanota.ru/bahamas/all-ive-ever-known-chords.htm
Привет, Гость.
Предлагаем пройти революционный курс по гитаре.
Подарок от PrimaNota.Ru, забирай!