PrimaNota.ru - самый крупный в мире бесплатный архив песенных текстов, аккордов, табулатур и нот


Badlands - The Last Time - таба, видео

Регистрация Запомнить меня
Войти через:  Facebook Google Twitter Vk Yandex Mail.ru

Badlands - The Last Time - таба, видео

Печатать
Просмотров: 150
-------------------------------------------------------------------------------
                             The Last Time - Badlands
-------------------------------------------------------------------------------
Tabbed by: Matt (yellowshirtguy)
Email: yellowshirtguy1@yahoo.com

Tuning: standard. EADGBe

Okay, I'm going to break this song down into a few parts, and I'll leave it up to you to 
it together.


CHORUS
e|------------------------------------8----8-8----10-10----------------------|
B|-10~-8~--------------------------10-6----6-6----8--8-----------------------|
G|-9~--7~--------------------------9--5----5-5----7--7-----------------------|
D|-7~--5~--------------------------7--5----3-3----5--5-----------------------|
A|------------------------3-5-2----------------------------------------------|
E|-----------15/7/0-0-3-5-------3--------------------------------------------|

RIFF A  (repeat as necessary)
e|---------------------------------------------------------------------------|
B|------------------5-5------------------------------------------------------|
G|-5----5-------5-5----------------------------------------------------------|
D|-5----5---5-5--------------------------------------------------------------|
A|---------------------------------------------------------------------------|
E|---------------------------------------------------------------------------|

RIFF B (repeat as necessary)
e|---------------------------------------------------------------------------|
B|------------8-8-5-5--------------------------------------------------------|
G|-5----7-------------5-5----------------------------------------------------|
D|-5----7--------------------------------------------------------------------|
A|---------------------------------------------------------------------------|
E|---------------------------------------------------------------------------|

| /  slide up
| \  slide down
| h  hammer-on
| p  pull-off
| ~  vibrato
| +  harmonic
| x  Mute note
===============================================================================
Добавлено: 28.04.2012
Другие материалы по этой песне:

Страница создана 28.04.2012
http://primanota.ru/badlands/the-last-time-chords.htm
Привет, Гость.
Предлагаем пройти революционный курс по гитаре.
Подарок от PrimaNota.Ru, забирай!