PrimaNota.ru - самый крупный в мире бесплатный архив песенных текстов, аккордов, табулатур и нот


Badflower - Heroin - таба, видео

Регистрация Запомнить меня
Войти через:  Facebook Google Twitter Vk Yandex Mail.ru

Badflower - Heroin - таба, видео

Печатать
Просмотров: 83
-------------------------------------------------------------------------------
                      HEROIN - Badflower (From The Hideout)
-------------------------------------------------------------------------------
Tabbed by: Alex Bruneau
E-mail: alex.sgw.bruneau@gmail.com

Tuning: Standard

Intro:
e|------------------------|------------------------|
B|------------------------|------------------------|
G|------------------------|------------------------|
D|------------------------|------------------------|
A|-------9-----10----10---|-11----11----10----10---|
E|-7--7-----7-----7-----7-|----7-----7-----7-----7-|

------------------------|------------------------|
------------------------|------------------------|
------------------------|------------------------|
------------------------|------------------------|
-9-----9-----10----10---|-11----11----10----10---|
----7-----7-----7-----7-|----7-----7-----7-----7-|

Verse 1:
       She's in    my head     again
------------------------|------------------------|
------------------------|------------------------|
------------------------|------------------------|
------------------------|------------------------|
-9-----9-----10----10---|-11----11----10----10---|
----7-----7-----7-----7-|----7-----7-----7-----7-| x10
       She knows   where  I have been
       I'm going down     that road again
       Hmm   hmm   hmmm
       Ah----ha    ah-----ha    ah----ha    ah---
-ha    ah----ha    ah-----ha
       She's in    my bed       again
       She marks her fingerprints, in my skin
       I breathe   her perfume  in
       She burns   like   heroin
---|
---|
---|
---|
-9-|
---|

Chorus 1:
       Now she's in me...                  \\\ no
       And   I     can't let    her   go   /// guitar
       My bones    are    caving in
------------------------|------------------------|
------------------------|------------------------|
------------------------|------------------------|
------------------------|------------------------|
-------9-----10----10---|-11----11----10----10---|
-7--7-----7-----7-----7-|----7-----7-----7-----7-|
       She stole   my faith     again
------------------------|------------------------|
------------------------|------------------------|
------------------------|------------------------|
------------------------|------------------------|
-9-----9-----10----10---|-11----11----10----10---|
----7-----7-----7-----7-|----7-----7-----7-----7-|
    And I wish     you well                 for the night 
------------------------|------------------------|--------------------|
------------------------|------------------------|--------------------|
------------------------|------------------------|--------------------|
------------------------|------------------------|--------------------|
-9-----9-----8-----8----|-6-----6-----4-----4----|-2-----2------------|
----7-----7-------------|------------------------|--------------------|
                      'Till you come again
--------------------|--------------------|
--------------------|--------------------|
--------------------|--------------------|
--------------------|--------------------|
--------------------|--------------------|
--------------------|--------------------|

Verse 2:
------------------------|------------------------|
------------------------|------------------------|
------------------------|------------------------|
------------------------|------------------------|
------------------------|------------------------|
-------9-----10----10---|-11----11----10----10---|
-7--7-----7-----7-----7-|----7-----7-----7-----7-|

------------------------|------------------------|
------------------------|------------------------|
------------------------|------------------------|
------------------------|------------------------|
-9-----9-----10----10---|-11----11----10----10---|
----7-----7-----7-----7-|----7-----7-----7-----7-|
       She's in    my veins     again
------------------------|------------------------|
------------------------|------------------------|
------------------------|------------------------|
------------------------|------------------------|
-9-----9-----10----10---|-11----11----10----10---|
----7-----7-----7-----7-|----7-----7-----7-----7-| x4
    But she knows that I'll bleed her out, before
I wake Exhale      her    oxygen
       She burns   like   heroin
---|
---|
---|
---|
-9-|
---|

Chorus 2:
       Now she's in me...                  \\\ no
       And   I     can't let    her   go   /// guitar
       My bones    are    caving in
------------------------|------------------------|
------------------------|------------------------|
------------------------|------------------------|
------------------------|------------------------|
-------9-----10----10---|-11----11----10----10---|
-7--7-----7-----7-----7-|----7-----7-----7-----7-|
       She stole   my faith     again
------------------------|------------------------|
------------------------|------------------------|
------------------------|------------------------|
------------------------|------------------------|
-9-----9-----10----10---|-11----11----10----10---|
----7-----7-----7-----7-|----7-----7-----7-----7-|
    And I wish     you well                 for the night
------------------------|------------------------|------------------------|
------------------------|------------------------|------------------------|
------------------------|------------------------|------------------------|
------------------------|------------------------|------------------------|
-9-----9-----8-----8----|-6-----6-----4-----4----|-2-----2----------------|
----7-----7-------------|------------------------|------------------------|

Bridge:
------------------------|------------------------|------------------------|
------------------------|------------------------|------------------------|
------------------------|------------------------|------------------------|
------------------------|------------------------|------------------------|
-10-10-10-10-11-11-11-11|-10-10-10-10-11-11-11-11|-10-10-10-10-11-11-11-11|
------------------------|------------------------|------------------------|
 Aah   aah   aah   aah    aaaaaaaaaaaahhhhhh
------------------------|------------------------|
------------------------|------------------------|
------------------------|------------------------|
------------------------|------------------------|
-0-----2-----5-----9----|-7-----9-----11----14---|
------------------------|------------------------|x5 (intensity/volume increases with every repeat)\
 Aah   aah   aah   aah    aaaaaaaaaaaahhhhhh
------------------------|------------------------|------------------------|
------------------------|------------------------|------------------------|
------------------------|------------------------|------------------------|
------------------------|------------------------|------------------------|
-0-----2-----5-----9----|-7----------------------|------------------------|
------------------------|------------------------|------------------------|
       She's in    my life      again
------------------------|------------------------|
------------------------|------------------------|
-------9-----------9----|-------9-----------7----|
------------------------|------------------------|
------------------------|------------------------|
-7--7-----7-----7-----7-|-5--5-----5-----5-----5-|
       But she won't ever       win
------------------------|------------------------|
------------------------|------------------------|
-------9-----------9----|-------9-----------7----|
------------------------|------------------------|
------------------------|------------------------|
-7--7-----7-----7-----7-|-5--5-----5-----5-----5-|
       Can I       be true      with all    we do        We can't    we can't
------------------------|------------------------|------------------------|------------------------|
------------------------|------------------------|------------------------|------------------------|
------------------------|------------------------|------------------------|------------------------|
------------------------|------------------------|------------------------|------------------------|
-0-----0-----2-----2----|/4-----4----/6-----6----|/8-----8----/10----10---|-11----12----14---------|
------------------------|------------------------|------------------------|------------------------|

Chorus 3:
       My bones    are    caving in
------------------------|------------------------|
------------------------|------------------------|
------------------------|------------------------|
------------------------|------------------------|
-------9-----10----10---|-11----11----10----10---|
-7--7-----7-----7-----7-|----7-----7-----7-----7-|
       She stole   my faith     again
------------------------|------------------------|
------------------------|------------------------|
------------------------|------------------------|
------------------------|------------------------|
-9-----9-----10----10---|-11----11----10----10---|
----7-----7-----7-----7-|----7-----7-----7-----7-|
    And I wish     you well                 for the night
------------------------|------------------------|------------------------|------------------------|
------------------------|------------------------|------------------------|------------------------|
------------------------|------------------------|------------------------|------------------------|
------------------------|------------------------|------------------------|------------------------|
-9-----9-----8-----8----|-6-----6-----4-----4----|-2-----2----------------|------------------------|
----7-----7-------------|------------------------|------------------------|------------------------|
       My bones    are    caving in
------------------------|------------------------|
------------------------|------------------------|
------------------------|------------------------|
------------------------|------------------------|
-------9-----10----10---|-11----11----10----10---|
-7--7-----7-----7-----7-|----7-----7-----7-----7-|
       She stole   my faith     again
------------------------|------------------------|
------------------------|------------------------|
------------------------|------------------------|
------------------------|------------------------|
-9-----9-----10----10---|-11----11----10----10---|
----7-----7-----7-----7-|----7-----7-----7-----7-|
    And I wish     you well                                             for the night
------------------------|------------------------|------------------------|------------------------|
------------------------|------------------------|------------------------|------------------------|
------------------------|------------------------|------------------------|------------------------|
------------------------|------------------------|------------------------|------------------------|
-9-----9-----8-----8----|-6----------------------|------------------------|----7--9--11-11-9--7----|
----7-----7-------------|------------------------|------------------------|-7--------------------7-|
                   for the night
------------------------|------------------------|------------------------|
------------------------|------------------------|------------------------|
------------------------|------------------------|------------------------|
------------------------|------------------------|------------------------|
-7--9--11-14-14-11-9--7-|----7--9--11-11-9--7----|-7--9--11-14------------|
------------------------|-7--------------------7-|------------------------|

************************************
| /   slide up
| \   slide down
| h   hammer-on
| p   pull-off
| ~   vibrato
| +   harmonic
| x   Mute note
| b   Bend
| pb  Pre-bend
| br  Bend release
| pbr Pre-bend release
| brb Bend release bend
************************************
Добавлено: 18.06.2016
Другие материалы по этой песне:
  • Аккорды и текст

Страница создана 18.06.2016
http://primanota.ru/badflower/heroin-chords.htm
Привет, Гость.
Предлагаем пройти революционный курс по гитаре.
Подарок от PrimaNota.Ru, забирай!