PrimaNota.ru - самый крупный в мире бесплатный архив песенных текстов, аккордов, табулатур и нот


Baddies - Battleships - таба, бас-таба, видео

Регистрация Запомнить меня
Войти через:  Facebook Google Twitter Vk Yandex Mail.ru

Baddies - Battleships - таба, бас-таба, видео

Печатать
Просмотров: 171
Artist:Baddies
Song:Battleships
Tabbed by:Duncan S/reelbigfish432

OK, saw these guys support Reuben and they were excellent. YOu can get the song on 
Reuben's TwoByThree EP or the Battleships single.

2 guitars.

Intro:
Both guitars
E|-------------|
B|-------------|
G|-------------|
D|-5-5--5-5--5-|
A|-5-5--5-5--5-|
E|-3-3--3-3--3-|

Verse 1:
Guitar 1
E|----------------------|
B|----------------------|
G|----------------------|
D|----------------------|
A|----------------------|
E|-6-x-x-x-x-3-5-3-6--0-|
 |                      |
Guitar 2                |
E|----------------------|
B|----------------------|
G|----------------------|
D|----------------------|
A|----------------------|
E|-6---------3-5-3-6--0-|

Guitar 1
E|------------------------------|
B|------------------------------|
G|------------------------------|
D|------------------------------|
A|------------------------------|
E|-3-5-3-6-x-x-xxx-3-5-3-6--0-0-|
 |                              |
Guitar 2                        |
E|------------------------------|
B|------------------------------|
G|------------------------------|
D|------------------------------|
A|------------------------------|
E|-3-5-3-6---------3-5-3-6--0-0-|

Guitar 1
E|-----------------------------------------------------------|
B|-----------------------------------------------------------|
G|-----------------------------------------------------------|
D|----------------------------------------------/6-6--6-6--6-|
A|----------------------------------------------/4-4--4-4--4-|
E|-3-5-3-6-xxxxxxxx-3-5-3-6--0-0--0-0-333333333--------------|
 |                                                           |
Guitar 2                                                     |
E|-----------------------------------------------------------|
B|-----------------------------------------------------------|
G|-----------------------------------------------------------|
D|----------------------------------------------/6-6--6-6--6-|
A|----------------------------------------------/4-4--4-4--4-|
E|-3-5-3-6----------3-5-3-6--0-0--0-0-333333333--------------|

Play that whole bit twice (the string mutes' rhythm varies but it's not too important).
Then:

Chorus:
Guitar 1
E|-777777777777777-77777777-77777766-|
B|-888888888888888-88888888-88888866-|
G|-999999999999999-99999999-999999---|
D|-999999999999999-99999999-999999---|
A|-777777777777777-77777777-777777---|
E|-----------------------------------|
 |                                   |
Guitar 2                             |
E|-----------------------------------|
B|-----------------------------------|
G|-----------------66666666----------|
D|-222222222222222-66666666-55555555-|
A|-222222222222222-44444444-55555555-|
E|-000000000000000----------33333333-|

Guitar 1
E|-777777777777777-77777777-6-6--6-6--6-|
B|-888888888888888-88888888-6-6--6-6--6-|
G|-999999999999999-99999999-------------|
D|-999999999999999-99999999-------------|
A|-777777777777777-77777777-------------|
E|--------------------------------------|
 |                                      |
Guitar 2                                |
E|--------------------------------------|
B|--------------------------------------|
G|-----------------66666666-------------|
D|-222222222222222-66666666-5-5--5-5--5-|
A|-222222222222222-44444444-5-5--5-5--5-|
E|-000000000000000----------3-3--3-3--3-|

Verse 2:
Guitar 1
E|----------------------|
B|----------------------|
G|----------------------|
D|----------------------|
A|----------------------|
E|-6-x-x-x-x-3-5-3-6--0-|
 |                      |
Guitar 2                |
E|----------------------|
B|----------------------|
G|----------------------|
D|----------------------|
A|-5---------2-4-2-5--2-|
E|----------------------|

Guitar 1
E|------------------------------|
B|------------------------------|
G|------------------------------|
D|------------------------------|
A|------------------------------|
E|-3-5-3-6-x-x-xxx-3-5-3-6--0-0-|
 |                              |
Guitar 2                        |
E|------------------------------|
B|------------------------------|
G|------------------------------|
D|------------------------------|
A|-2-4-2-5---------2-4-2-5--2-2-|
E|------------------------------|

Guitar 1
E|-----------------------------------------------------------|
B|-----------------------------------------------------------|
G|-----------------------------------------------------------|
D|----------------------------------------------/6-6--6-6--6-|
A|----------------------------------------------/4-4--4-4--4-|
E|-3-5-3-6-xxxxxxxx-3-5-3-6--0-0--0-0-333333333--------------|
 |                                                           |
Guitar 2                                                     |
E|-----------------------------------------------------------|
B|-----------------------------------------------------------|
G|-----------------------------------------------------------|
D|----------------------------------------------/6-6--6-6--6-|
A|-2-4-2-5----------2-4-2-5--2-2--2-2-222222222-/4-4--4-4--4-|
E|-----------------------------------------------------------|

Then play the Chorus section twice.
Then:

Bridge:
Both Guitars
E|--------------|
B|--------------|
G|-3------222---|
D|-3--222-222-2-|x2
A|-1--222-000-2-|
E|----000-----0-|

E|-11111111-11111111-|
B|-11111111-33333333-|
G|-22222222-33333333-|
D|-33333333-33333333-|
A|-33333333-11111111-|
E|-11111111----------|

Guitar 1
E|-777777777777777-77777777-77777766-|
B|-888888888888888-88888888-88888866-|
G|-999999999999999-99999999-999999---|
D|-999999999999999-99999999-999999---|
A|-777777777777777-77777777-777777---|
E|-----------------------------------|
 |                                   |
Guitar 2                             |x2
E|-----------------------------------|
B|-----------------------------------|
G|-999999999999999-99999999-99999999-|
D|-----------------------------------|
A|-----------------------------------|
E|-----------------------------------|

Both guitars
E|-------------|
B|-------------|
G|-------------|
D|-5-5--5-5--5-|
A|-5-5--5-5--5-|
E|-3-3--3-3--3-|

Then a chorus twice.
And that's it! It's quite long so here's the arrangement.

Intro
Verse 1
Chorus
Verse 2
Chorus x2
Bridge
Chorus x2






Добавлено: 03.03.2012
Другие материалы по этой песне:

Страница создана 03.03.2012
http://primanota.ru/baddies/battleships-chords.htm
Привет, Гость.
Предлагаем пройти революционный курс по гитаре.
Подарок от PrimaNota.Ru, забирай!