PrimaNota.ru - самый крупный в мире бесплатный архив песенных текстов, аккордов, табулатур и нот


Badbadnotgood - Mono - бас-таба, видео

Регистрация Запомнить меня
Войти через:  Facebook Google Twitter Vk Yandex Mail.ru

Badbadnotgood - Mono - бас-таба, видео

Печатать
Просмотров: 57
BADBADNOTGOOD & Ghostface Killah - Mono
From the album Sour Soul

 | 1 - - 2 - - 3 - - 4 - - 1 - - 2 - - 3 - - 4 - - |
G|-------------------------------------------------|
D|-----------0-2-----------------------------------|
A|-0-----0-3-----3-0-----0-------------------------|
E|---0-3-------------0-3---------------------------|

 | 1 - - 2 - - 3 - - 4 - - 1 - - 2 - - 3 - - 4 - - |
G|-------------------------------------------------|
D|-----------0-2-----------------------------------|
A|-0-----0-3-----3-0-----0-------------------------|
E|---0-3-------------0-3---------------------------|

 | 1 - - 2 - - 3 - - 4 - - 1 - - 2 - - 3 - - 4 - - |
G|-------------------------------------------------|
D|-----------0-2----------------------------------0|
A|-0-----0-3-----3-0-----0----------------------03-|
E|---0-3-------------0-3---------------------------|

 | 1 - - 2 - - 3 - - 4 - - 1 - - 2 - - 3 - - 4 - - |
G|-------------------------------------------------|
D|-202--0202--020--02-----0202--0202--020----------|
A|----03----03---30-----03----03----03---3030------|
E|-------------------------------------------------|

 | 1 - - 2 - - 3 - - 4 - - 1 - - 2 - - 3 - - 4 - - |
G|-------------------------------------------------|
D|-202--0202--020--02-----0202--0202--020----------|
A|----03----03---30-----03----03----03---3030------|
E|-------------------------------------------------|

Добавлено: 04.05.2016
Вам также может быть интересно:
Другие материалы по этой песне:
  • Аккорды и текст

Страница создана 04.05.2016
http://primanota.ru/badbadnotgood/mono-chords.htm
Привет, Гость.
Предлагаем пройти революционный курс по гитаре.
Подарок от PrimaNota.Ru, забирай!