PrimaNota.ru - самый крупный в мире бесплатный архив песенных текстов, аккордов, табулатур и нот


Badbadnotgood - Kaleidoscope - таба, видео

Регистрация Запомнить меня
Войти через:  Facebook Google Twitter Vk Yandex Mail.ru

Badbadnotgood - Kaleidoscope - таба, видео

Печатать
Просмотров: 155
Авторы музыки: Alexander Sowinski, Chester Hansen, Matthew Tavares

-------------------------------------------------------------------------------
                            Kaleidoscope - BADBADNOTGOOD
-------------------------------------------------------------------------------
Tabbed by: markiiitu
E-mail: marcolucio27@gmail.com

Tuning: Standard

e|------0-1--0----|----------------|-------------------|-------------------|
B|----1--------1--|------1-2--1----|-------------------|-------------------|
G|--2-------------|----1--------1--|--3-2-----------2--|--3-2-----------2--|
D|----------------|--3-------------|------3-0-3-0-3----|------3-0-3-0-3----|
A|----------------|----------------|-------------------|-------------------|
E|----------------|----------------|-------------------|-------------------|

************************************

| /   slide up
| \   slide down
| h   hammer-on
| p   pull-off
| ~   vibrato
| +   harmonic
| x   Mute note
| b   Bend
| pb  Pre-bend
| br  Bend release
| pbr Pre-bend release
| brb Bend release bend

************************************
Добавлено: 21.10.2015
Другие материалы по этой песне:
  • Аккорды и текст

Страница создана 21.10.2015
http://primanota.ru/badbadnotgood/kaleidoscope-chords.htm
Привет, Гость.
Предлагаем пройти революционный курс по гитаре.
Подарок от PrimaNota.Ru, забирай!