PrimaNota.ru - самый крупный в мире бесплатный архив песенных текстов, аккордов, табулатур и нот


Badbadnotgood - Gunshowers Ft Elzhi - бас-таба, видео

Регистрация Запомнить меня
Войти через:  Facebook Google Twitter Vk Yandex Mail.ru

Badbadnotgood - Gunshowers Ft Elzhi - бас-таба, видео

Печатать
Просмотров: 50
BADBADNOTGOOD & Ghostface Killah - Gunshowers Ft. Elzhi
From the album Sour Soul

In Drop Eb tuning (tune E string down a half-step)

Structure:
Verse x4
Chorus
Verse x5
Chorus 2
Bridge

Verse
  | 1 + 2 + 3 + 4 + 1 + 2 + 3 + 4 + 1 + 2 + 3 + 4 + 1 + 2 + 3 + 4 + |
G |-----------------------------------------------------------------|
D |-8-----8-8-----8-8-------8-8-----8-----8-8-----8-8-------8-8-----|
A |-----------------------8-------------------------------8---------|
Eb|-----------------------------------------------------------------|

Chorus
  | 1 + 2 + 3 + 4 + 1 + 2 + 3 + 4 + 1 + 2 + 3 + 4 + 1 + 2 + 3 + 4 + |
G |-----------------------------------------------------------------|
D |-8-6-----------------------------8-6-----------------------------|
A |-----8-----------4---6---------------8---------6-4---6-----------|
Eb|-----------------------------------------------------------------|

  | 1 + 2 + 3 + 4 + 1 + 2 + 3 + 4 + 1 + 2 + 3 + 4 + 1 + 2 + 3 + 4 + |
G |-----------------------------------------------------------------|
D |-8-6-----------------------------8-6-----------------------------|
A |-----8-----------4---6---------------8---------------------------|
Eb|-----------------------------------------------2-5---7-----------|

Chorus 2
  | 1 + 2 + 3 + 4 + 1 + 2 + 3 + 4 + 1 + 2 + 3 + 4 + 1 + 2 + 3 + 4 + |
G |-----------------------------------------------------------------|
D |-8-6-------------6---------------8-6-------------6---------------|
A |-----8---------8---9-6---------------8---------8---9-6-----------|
Eb|-----------------------------------------------------------------|

  | 1 + 2 + 3 + 4 + 1 + 2 + 3 + 4 + 1 + 2 + 3 + 4 + 1 + 2 + 3 + 4 + |
G |-----------------------------------------------------------------|
D |-8-6-------------6---------------8---8---6---6---4---4---3-------|
A |-----8---------8---9-6-------------8-------6-------4-------------|
Eb|-------------------------------------------------------------2---|

Bridge
  | 1 + 2 + 3 + 4 + 1 + 2 + 3 + 4 + 1 + 2 + 3 + 4 + 1 + 2 + 3 + 4 + |
G |-----------------------------------------------------------------|
D |-----------------------------------------------------------------|
A |-----------------------------------------------------------------|
Eb|-7-5-2---------2-5-3-0-----------7-5-2---------2-5-3-0-----------|

  | 1 + 2 + 3 + 4 + 1 + 2 + 3 + 4 + 1 + 2 + 3 + 4 + 1 + 2 + 3 + 4 + |
G |-----------------------------------------------------------------|
D |---------------------------------8-------6-------4-------3-------|
A |-----------------------------------8-------6-------4-------------|
Eb|-7-5-2---------2-5-3-0---------------7-------5-------3---2-------|
Добавлено: 04.05.2016
Другие материалы по этой песне:
  • Аккорды и текст

Страница создана 04.05.2016
http://primanota.ru/badbadnotgood/gunshowers-ft-elzhi-chords.htm
Привет, Гость.
Предлагаем пройти революционный курс по гитаре.
Подарок от PrimaNota.Ru, забирай!