PrimaNota.ru - самый крупный в мире бесплатный архив песенных текстов, аккордов, табулатур и нот


Bad Religion - The Hopeless Housewife - текст песни, таба, видео

Регистрация Запомнить меня
Войти через:  Facebook Google Twitter Vk Yandex Mail.ru

Bad Religion - The Hopeless Housewife - текст песни, таба, видео

Печатать
Просмотров: 212
Band: Bad Religion
Song: The Hopeless Housewife
Album: The New America

Intro:

E|--0000--0000--3333--2222--|
B|--0000--1111--0000--3333--|
G|--0000--0000--0000--2222--|
D|--2222--2222--0000--0000--|
A|--2222--3333--2222--------|
E|--0000--------3333--------|

Verse:

E|---------(2x)-------3--2222--3--2222--|
B|--------------------0--3333--0--3333--|
G|--x-x-x-x--x-x-x-x--0--2222--0--2222--|
D|--2-2-2-2--2-2-2-2--0--0000--0--0000--|
A|--2-2-2-2--3-3-3-3--2--------2--------|
E|--0-0-0-0-----------3--------3--------|

(Spew out...)
E|--00000000--00000000--33333333--22222222--------|
B|--00000000--11111111--00000000--33333333--------|
G|--00000000--00000000--00000000--22222222--------|
D|--22222222--22222222--00000000--00000000--(2x)--|
A|--22222222--33333333--22222222------------------|
E|--00000000------------33333333------------------|

(It's a secret...)
E|----------------------2-2222--2-2222--------|
B|----------------------3-3333--3-3333--------|
G|--xxxxxxxx--xxxxxxxx--2-2222--2-2222--------|
D|--22222222--22222222--0-0000--0-0000--(2x)--|
A|--22222222--33333333------------------------|
E|--00000000----------------------------------|

Chorus:

(But they never ask...)
E|--0-000--3-333--2-222-222-333--------|
B|--0-000--0-000--3-333-333-444--------|
G|--0-000--0-000--2-222-222-333--------|
D|--2-222--0-000--0-000-000------(2x)--|
A|--2-222--2-222-----------------------|
E|--0-000--3-333-----------------------|

(Instead we're mute and fawn...)
E|--00000000--00000000--33333333--22222222--------|
B|--00000000--11111111--00000000--33333333--------|
G|--00000000--00000000--00000000--22222222--------|
D|--22222222--22222222--00000000--00000000--(2x)--|
A|--22222222--33333333--22222222------------------|
E|--00000000------------33333333------------------|

(But you can change...)
E|--0-000--3-333--2-222-222-333--------|
B|--0-000--0-000--3-333-333-444--------|
G|--0-000--0-000--2-222-222-333--------|
D|--2-222--0-000--0-000-000------(2x)--|
A|--2-222--2-222-----------------------|
E|--0-000--3-333-----------------------|

Then repeat everything again, and that's it!
Добавлено: 05.03.2012
Другие материалы по этой песне:

Страница создана 05.03.2012
http://primanota.ru/bad-religion/the-hopeless-housewife-chords.htm
Привет, Гость.
Предлагаем пройти революционный курс по гитаре.
Подарок от PrimaNota.Ru, забирай!