PrimaNota.ru - самый крупный в мире бесплатный архив песенных текстов, аккордов, табулатур и нот


Bad Religion - Sensory Overload - текст песни, бас-таба, видео

Регистрация Запомнить меня
Войти через:  Facebook Google Twitter Vk Yandex Mail.ru

Bad Religion - Sensory Overload - текст песни, бас-таба, видео

Печатать
Просмотров: 33
Song: Sensory Overload
Artist: Bad Religion
Album: Bad Religion EP
Genre: Hardcore Punk
Year: 1981

Hey guys! This is the bass tab of the song and it's 100% correct.
Anyway, enjoy the Bad Religion!

Intro:

G:-------------------   -----------   -----------------
D:-------------------   -----------   -------1---------
A:-------------------   -----------   ----------4--2---
E:---55-00-7-77777---x3 ---00-55---x3 ---0-------------x1

Next, the song follows this order: 

G:-------------------
D:-------------------
A:-------------------
E:---77-55-2-22222---x4

G:--------------------   -------------------
D:--------------------   -------------------
A:-----0--------------   -------------------
E:---2---00-7-77777---x1 ---55-00-7-77777---x4

G:-----------------------------------------------
D:-----------------------------------------------
A:---7777-9-999-666-7-6-66-6-6-66-6-7-777777-9---
E:-----------------------------------------------x1

G:-------------------   -------------
D:-------------------   -------------
A:-------------------   -------------
E:---77-55-2-22222---x5 ---77-55-2---x1

G:-------------------
D:-------------------
A:-------------------
E:---55-00-7-77777---x8

G:-----------------------------------------------
D:-----------------------------------------------
A:---7777-9-999-666-7-6-66-6-6-66-6-7-777777-9---
E:-----------------------------------------------x1

G:-------------------   -------------
D:-------------------   -------------
A:-------------------   -------------
E:---77-55-2-22222---x5 ---77-55-2---x1





Tab by: mdc_ivan


Добавлено: 21.03.2016
Другие материалы по этой песне:
  • Аккорды и текст

Страница создана 24.05.2012
http://primanota.ru/bad-religion/sensory-overload-chords.htm
Привет, Гость.
Предлагаем пройти революционный курс по гитаре.
Подарок от PrimaNota.Ru, забирай!