PrimaNota.ru - самый крупный в мире бесплатный архив песенных текстов, аккордов, табулатур и нот


Bad Religion - Pessimistic Lines - текст песни, таба, драм-таба, видео

Регистрация Запомнить меня
Войти через:  Facebook Google Twitter Vk Yandex Mail.ru

Bad Religion - Pessimistic Lines - текст песни, таба, драм-таба, видео

Печатать
Просмотров: 174
-------------------------------------------------------------------------------
                     PESSIMISTIC LINES – Bad Religion
-------------------------------------------------------------------------------
Tabbed by:Roy Jones
Email:roiboi@hotmail.com

Tuning:Standard

Intro/Chorus
e|---------------------------------------------------------------------------|
B|---------------------------------------------------------------------------|
G|---------9---999-----------7---777-----------9---999---1111111111111111----|
D|-4---7---9---999---4---7---7---777---4---7---9---999---1111111111111111----|
A|-4---7---7---777---4---7---5---555---4---7---7---777---9-9-9-9-9-9-9-9-----|
E|-2---5-------------2---5-------------2---5---------------------------------|

Verse
e|---------------------------------------------------------------------------|
B|---------------------------------------------------------------------------|
G|-1111111111111111------------------9-9-9-9-9-9-9-9--1111111111111111-------|
D|-1111111111111111-7-7-7-7-7-7-7-7--9-9-9-9-9-9-9-9--1111111111111111---x2--|
A|-9-9-9-9-9-9-9-9--7-7-7-7-7-7-7-7--7-7-7-7-7-7-7-7--9-9-9-9-9-9-9-9--------|
E|------------------5-5-5-5-5-5-5-5------------------------------------------|

Bridge
e|---------------------------------------------------------------------------|
B|---------------------------------------------------------------------------|
G|-1111111111111111-1414141414141414-1616161616161616------------------------|
D|-x-x-x-x-x-x-x-x--x-x-x-x-x-x-x-x--x-x-x-x-x-x-x-x-----Pick slide------x2--|
A|-9-9-9-9-9-9-9-9--1212121212121212-1414141414141414------------------------|
E|---------------------------------------------------------------------------|

Song Structure

Intro
Verse
Chorus x2
Verse and Bridge (2 guitars)
Chorus x3

That's pretty much it. Short and sweet, they way punk should be!

| /  slide up
| \  slide down
| h  hammer-on
| p  pull-off
| ~  vibrato
| +  harmonic
| x  Mute note
===============================================================================

Добавлено: 29.06.2012
Другие материалы по этой песне:

Страница создана 29.02.2012
http://primanota.ru/bad-religion/pessimistic-lines-chords.htm
Привет, Гость.
Предлагаем пройти революционный курс по гитаре.
Подарок от PrimaNota.Ru, забирай!