PrimaNota.ru - самый крупный в мире бесплатный архив песенных текстов, аккордов, табулатур и нот


Bad Religion - In So Many Ways - текст песни, таба, бас-таба, видео

Регистрация Запомнить меня
Войти через:  Facebook Google Twitter Vk Yandex Mail.ru

Bad Religion - In So Many Ways - текст песни, таба, бас-таба, видео

Печатать
Просмотров: 259
Уроки эстрадного вокала в Санкт-Петербурге
Авторы музыки: Greg Graffin

Artist: BAD RELIGION
Song: In So Many Ways
Album: No Substance
Tuning: Standard (EADGBE)

Chords: (I think they use powerchords)

   G   E   F#  A#  B  D#5
E|-4-|-0-|-2-|---|---|---|
B|-4-|-0-|-2-|-3-|-4-|---|
G|-4-|-1-|-3-|-3-|-4-|-8-|
D|-6-|-2-|-4-|-3-|-4-|-8-|
A|-6-|-2-|-4-|-1-|-2-|-6-|
E|-4-|-0-|-2-|---|---|---|


INTRO:

   G#      E         G#      E         G#      F#        E
E|-----------------|-----------------|-----------------|-----------------|
B|-----------------|-----------------|-----------------|-----------------|
G|/8-6-------------|-----------------|-----------------|-----------------|
D|-----9p8-9-8-6h8-|-6---------------|---------------4-|-------------4-6-|
A|-----------------|-----4h6-4-------|-------4---4-6---|-7---------7-----|
E|-----------------|-----------------|-4-6-7---7-------|-----------------|

   F#
E|-----------------|
B|-----------------|
G|-----------------|
D|-4---------8-8-9-|
A|-----------------|
E|-----------------|


PRE-VERSE: (A bit slower)

(Palm muted chords)

   G#      F#        E         A#  B   G#      F#        E         A#  B
E|-----------------|-----------------|-----------------|-----------------|
B|-----------------|-----------------|-----------------|-----------------|
G|-----------------|-----------------|-----------------|-----------------|
D|-6---------------|-(6)-------------|-6---------------|-9---------------|
A|-6---------------|-(6)-------------|-6---------------|-7---------------|
E|-4---------------|-(4)-------------|-4---------------|-----------------|


VERSE:

(Palm muted)

G#            F#             E     A# B
I can see the shadows on the wall

G#              F#              E     A# B
Drifting as the leaves start to fall.

(Open chords/a bit faster)

B                        F#
Unfazed by rugosity, the objects yield to gravity

E                            G#    F#    E
And depict the destiny of us all.

(Palm muted/a bit slower)

G#            F#           E     A# B
No one really knows why we die.

G#            F#          E     A# B
No one gets a break so we try.

(Open chords/a bit faster)

B                      F#
Ignoring mortality, we worship mediocrity

E                                  G#    F#    E
And wait to see what happens up on high.

G#    F#    D#5


CHORUS:

G#         E               B          F#
In so many ways we live to follow the sun,

G#         E         B               F#
In so many ways we exalt and fail as one.

G#         E               B          F#
In so many ways we want so bad to be done,

G#         E                B       A#
In so many ways we show our pain in unison.

G# A# G# A# E (Fill1) F#


Lead guitar plays under the chorus:

E|-----------------|-----------------|
B|---9-------------|-----------------|
G|-----8-------9-8-|---6-8-9-6-------|
D|-6-----6---9-----|-9---------8-8-9-|
A|---------7-------|-----------------|
E|-----------------|-----------------| (4x)

Fill1:
E|---7-7---9-7-----|
B|---9-9-9---9-----|
G|-----------------|
D|-----------------|
A|-----------------|
E|-----------------|


SOLO:

   G#      F#        E                 G#      F#        E         A#  B
E|-----------------|-----------------|-----------------|-----------------|
B|-----------------|-----------------|-----------------|---------7-------|
G|-----------------|-----------------|-------6---6-8-9-|-8---9-------9---|
D|-----------------|-----------------|-6-8-9---9-------|-----------------|
A|-------4---4-6-7-|-6---4-------4---|-----------------|-----------------|
E|-4-6-7---7-------|---------7-------|-----------------|-----------------|

   G#      F#        E         A#  B   G#       F#       E         A#  B
E|-----------------|-----------------|-----------------|-----------------|
B|-79----79----79--|-79----79-9-7----|-----------------|-----------------|
G|---989---989---9-|---989---98--89--|/9--8--6-8--6----|-6---4---3---4---|
D|-----------------|---------------9-|---------------9-|-----------------|
A|-----------------|-----------------|-----------------|-----------------|
E|-----------------|-----------------|-----------------|-----------------|


PRE-VERSE: (A bit slower)

(Palm muted chords)

   G#      F#        E         A#  B   G#      F#        E         A#  B
E|-----------------|-----------------|-----------------|-----------------|
B|-----------------|-----------------|-----------------|-----------------|
G|-----------------|-----------------|-----------------|-----------------|
D|-6---------------|-(6)-------------|-6---------------|-9---------------|
A|-6---------------|-(6)-------------|-6---------------|-7---------------|
E|-4---------------|-(4)-------------|-4---------------|-----------------|


VERSE:

(Palm muted)

G#                  F#                E     A# B
Something in you is busy counting the days,

G#          F#              E     A# B
Catapulting you through the haze.

(Open chords/a bit faster)

B                    F#
Blind to virtuosity, ignorant of your sanctity,

E                              G#    F#    E
Revealing you, in so many ways.

G#    F#    D#5


CHORUS:

G#         E               B          F#
In so many ways we live to follow the sun,

G#         E               B                F#
In so many ways we tend to rise and fall as one.

G#         E               B          F#
In so many ways we want so bad to be done,

G#         E                B       A#
In so many ways we show our pain in unison.

G# A# G# A# E (Fill2) F#


Lead guitar plays under the chorus:

E|-----------------|-----------------|
B|---9-------------|-----------------|
G|-----8-------9-8-|---6-8-9-6-------|
D|-6-----6---9-----|-9---------8-8-9-|
A|---------7-------|-----------------|
E|-----------------|-----------------| (4x)

Fill2:
E|---7-7-79-7-9-7--|
B|---9-99----9---9-|
G|-----------------|
D|-----------------|
A|-----------------|
E|-----------------|


Repeat: CHORUS



OUTRO

   G#      E         G#      E         G#      E         G#      E
E|-----------------|-----------------|-----------------|-----------------|
B|-----------------|-----------------|-----------------|-----------------|
G|/8-6-------------|-----------------|/8-6-------------|-----------------|
D|-----9p8-9-8-6h8-|-6---6h8-6-------|-----9b8-9-8-6h8-|-6---6h8-6-------|
A|-----------------|-----------------|-----------------|-----------------|
E|-----------------|-----------------|-----------------|-----------------|

   G#      E         G#      E         G#
E|-----------------|---------6---7---|-----------------|
B|-----------------|-----7-----------|-9\--------------|
G|-------6---6-8h9-|-8---------------|-----------------|
D|-6h8-9---9-------|-----------------|-----------------|
A|-----------------|-----------------|-----------------|
E|-----------------|-----------------|-----------------|


THE END
Добавлено: 24.07.2012
Другие материалы по этой песне:

Страница создана 11.05.2012
http://primanota.ru/bad-religion/in-so-many-ways-chords.htm
Привет, Гость.
Предлагаем пройти революционный курс по гитаре.
Подарок от PrimaNota.Ru, забирай!