PrimaNota.ru - самый крупный в мире бесплатный архив песенных текстов, аккордов, табулатур и нот


Bad Religion - Drastic Actions - текст песни, таба, бас-таба, видео

Регистрация Запомнить меня
Войти через:  Facebook Google Twitter Vk Yandex Mail.ru

Bad Religion - Drastic Actions - текст песни, таба, бас-таба, видео

Печатать
Просмотров: 135
Tabbed By:MattAngel
Email - Luciduphoria@gmail.com
Difficulty - Neanderthal
 
I noticed nobody had a tab of this song so I'm going to give it a shot.
If you know the actual chords contact me via email, thx.

It might sound better a half step up or down.
My ear isn't perfect.

Intro/Verse
Part 1 
E|-------------------------------------------|
B|-------------------------------------------|
G|-------------------------------------------|
D|-5-5-5-5--6-6-6-6--8-8-8-8-8-8-------------|
A|-5-5-5-5--6-6-6-6--8-8-8-8-8-8-------------|
E|-3-3-3-3--4-4-4-4--6-6-6-6-6-6-------------|
Part 2
E|-------------------------------------------|
B|-------------------------------------------|
G|-------------------------------------------|
D|-5-5-5-5--6-6-6-6--8-8-8-6-8-6-5-----------|
A|-5-5-5-5--6-6-6-6--8-8-8-6-8-6-5-----------|
E|-3-3-3-3--4-4-4-4--6-6-6-4-6-4-3-----------|

"But I heard him say I want out no complaints and no doubts, cause the chances go on."
E|----------------------------|
B|----------------------------|
G|----------------------------|
D|-5-5-5--6-6-6---/-8-6-5-----|
A|-5-5-5--6-6-6---/-8-6-5-----|
E|-3-3-3--4-4-4---/-6-4-3-----|

Gradually get fast with this part
E|-------------------------------------------|
B|-------------------------------------------|
G|-------------------------------------------|
D|-5-5-5-5--6-6-6-6--8-8-8-6-8-6-5-----------|
A|-5-5-5-5--6-6-6-6--8-8-8-6-8-6-5-----------|
E|-3-3-3-3--4-4-4-4--6-6-6-4-6-4-3-----------|

Then end it with this like the rest of the verses 
E|-------------------------------------------|
B|-------------------------------------------|
G|-------------------------------------------|
D|-5-5-5-5--6-6-6-6--8-8-8-8-8-8-------------|
A|-5-5-5-5--6-6-6-6--8-8-8-8-8-8-------------|
E|-3-3-3-3--4-4-4-4--6-6-6-6-6-6-------------|

Play this at the end and listen to the song so you know how he bends it.
E|-------------------------------------------|
B|-333-333-----------------------------------|
G|-------------------------------------------|
D|-------------------------------------------|
A|-------------------------------------------|
E|-------------------------------------------|
Добавлено: 12.06.2012
Другие материалы по этой песне:
  • Аккорды и текст

Страница создана 17.03.2012
http://primanota.ru/bad-religion/drastic-actions-chords.htm
Привет, Гость.
Предлагаем пройти революционный курс по гитаре.
Подарок от PrimaNota.Ru, забирай!