PrimaNota.ru - самый крупный в мире бесплатный архив песенных текстов, аккордов, табулатур и нот


Bad Religion - Atheist Peace - текст песни, таба, видео

Регистрация Запомнить меня
Войти через:  Facebook Google Twitter Vk Yandex Mail.ru

Bad Religion - Atheist Peace - текст песни, таба, видео

Печатать
Просмотров: 143
Авторы музыки: Greg Graffin, Brett Gurewitz
Авторы текста: Greg Graffin, Brett Gurewitz
Atheist peace
Bad religion
lead guitar

e----------------------------------------------|
b----6----5------------------------------------|
g--------------7----5--------------------------|
d------------------------7--------3----5-------|
a----------------------------------------------|
e----------------------------------------------|

e-------------------------------------------------------------------------|
b-------------------------------------------------------------------------|
g--------------10-10-12-------------10-10-12------------------------10----|
d--12-12-12-12-10-10-12-12-12-12-12-10-10-12--8--8—-8—-8-8---8--8---10-10-|
a—-12-12-12-12--8--8-10-12-12-12-12—-8--8-10—-8—-8—-8—-8-8---8—-8----8-10-|
e-—10-10-10-10----------10-10-10-10-----------6—-6—-6—-6-6---6--6-------8-|

e--------------|
b--------------|
g----10--------|
d-10-10-10-10--|
a-10--8-10-10--|
e-8------8--8--|

e-------------------------------------------------------------------------|
b-------------------------------------------------------------------------|
g--------------10-10-12-------------10-10-12------------------------10----|
d--12-12-12-12-10-10-12-12-12-12-12-10-10-12--8--8—-8—-8-8---8--8---10-10-|
a—-12-12-12-12--8--8-10-12-12-12-12—-8--8-10—-8—-8—-8—-8-8---8—-8----8-10-|
e-—10-10-10-10----------10-10-10-10-----------6—-6—-6—-6-6---6--6-------8-|

e--------------|
b--------------|
g----10--------|
d-10-10-10-10--|
a-10--8-10-10--|
e-8------8--8--|

e---------------------------------------------------------------------------|
b---------------------------------------------------------------------------|
g--10-10-10-10-5-5-5-5-7-7-7-7-7-7-7-7---------10---------------------------|
d--10-10-10-10-5-5-5-5-7-7-7-7-7-7-7-7-8-8-8-8-10--10-10--12-12-12-12-12-12-|
a---6--6--6--6-3-3-3-3-5-5-5-5-5-5-5-5-8-8-8-8--8--10-10--12-12-12-12-12-12-|
e--------------------------------------6-6-6-6------8--8--10-10-10-10-10-10-|

e------------|
d------------|
g------------|
d-12-12------|
a-12-12------|
e-10-10------|

e---------------------------------------------------------------------------|
b---------------------------------------------------------------------------|
g--10--10-------------------------------------------------------------------|
d--10--10--10-12-12-12-12-12-12-12-12-8-8-8-8-8-8-8-8-----------------------|
a---8---8--10-12-12-12-12-12-12-12-12-8-8-8-8-8-8-8-8-----------------------|
e-----------8-10-10-10-10-10-10-10-10-6-6-6-6-6-6-6-6-----------------------|

e----------------------------------------------|
b----6----5------------------------------------|
g--------------7----5--------------------------|
d------------------------7--------3----5-------|
a----------------------------------------------|
e----------------------------------------------|

e-------------------------------------------------------------------------|
b-------------------------------------------------------------------------|
g--------------10-10-12-------------10-10-12------------------------10----|
d--12-12-12-12-10-10-12-12-12-12-12-10-10-12--8--8—-8—-8-8---8--8---10-10-|
a—-12-12-12-12--8--8-10-12-12-12-12—-8--8-10—-8—-8—-8—-8-8---8—-8----8-10-|
e-—10-10-10-10----------10-10-10-10-----------6—-6—-6—-6-6---6--6-------8-|

e--------------|
b--------------|
g----10--------|
d-10-10-10-10--|
a-10--8-10-10--|
e-8------8--8--|


e-------------------------------------------------------------------------|
b-------------------------------------------------------------------------|
g--------------10-10-12-------------10-10-12------------------------10----|
d--12-12-12-12-10-10-12-12-12-12-12-10-10-12--8--8—-8—-8-8---8--8---10-10-|
a—-12-12-12-12--8--8-10-12-12-12-12—-8--8-10—-8—-8—-8—-8-8---8—-8----8-10-|
e-—10-10-10-10----------10-10-10-10-----------6—-6—-6—-6-6---6--6-------8-|

e--------------|
b--------------|
g----10--------|
d-10-10-10-10--|
a-10--8-10-10--|
e-8------8--8--|


e---------------------------------------------------------------------------|
b---------------------------------------------------------------------------|
g--10-10-10-10-5-5-5-5-7-7-7-7-7-7-7-7---------10---------------------------|
d--10-10-10-10-5-5-5-5-7-7-7-7-7-7-7-7-8-8-8-8-10--10-10--12-12-12-12-12-12-|
a---6--6--6--6-3-3-3-3-5-5-5-5-5-5-5-5-8-8-8-8--8--10-10--12-12-12-12-12-12-|
e--------------------------------------6-6-6-6------8--8--10-10-10-10-10-10-|

e------------|
d------------|
g------------|
d-12-12------|
a-12-12------|
e-10-10------|

e---------------------------------------------------------------------------|
b----------------------------------------------6----5-----------------------|
g--10---10-----------------------------------------------7----5-------------|
d--10---10---10---12-12-12-12-12-12-12-12--------------------------7--------|
a---8----8---10---12-12-12-12-12-12-12-12-----------------------------------|
e-------------8---10-10-10-10-10-10-10-10-----------------------------------|


e---------------------------------------------------------------------------|
b------------6----5---------------------------------------------------------|
g----------------------7----5----10----9----7----5-----7--------------------|
d--3----5-------------------------------------------------------------------|
a---------------------------------------------------------------------------|
e---------------------------------------------------------------------------|
Добавлено: 14.06.2012
Другие материалы по этой песне:

Страница создана 26.02.2012
http://primanota.ru/bad-religion/atheist-peace-chords.htm
Привет, Гость.
Предлагаем пройти революционный курс по гитаре.
Подарок от PrimaNota.Ru, забирай!