PrimaNota.ru - самый крупный в мире бесплатный архив песенных текстов, аккордов, табулатур и нот


Bad Religion - A World Without Melody - текст песни, таба, видео

Регистрация Запомнить меня
Войти через:  Facebook Google Twitter Vk Yandex Mail.ru

Bad Religion - A World Without Melody - текст песни, таба, видео

Печатать
Просмотров: 134
Авторы музыки: Greg Graffin
Авторы текста: Greg Graffin
A World Without Melody
Tabbed out by Christopher L. Exner  ( cexner@pclink.com )


  INTRO/VERSE
    F          C#     G#   D#              D#  F  D#
E|----------------------------------      ----------
B|----------------------------------      ----------
G|----------------------------------      ----------
D|--10-10-10---6-6-6-------8-888---- last -8-8/10-8-
A|--8--8--8----4-4-4--6-6--6-666---- time -6-6/8--6-
E|--------------------4-4------------     ----------
 
  Add this while bass plays verse
  (palm mute top string)
    C          B
e|--------------------------
B|--------------------------
G|--5-5-5-5>>>>>4-4-4-4-4---
D|--------------------------
A|--3-3-3-3>>>>>2-2-2-2-2---
E|--------------------------

  "So let it out
  Don't just get lost in the crowd"
     G#  D#  F
e|-----------------------------------
B|-----------------------------------
G|-----------------------1010101010--
D|-------8---10--101010--1010101010--
A|---6---6---8---8-8-8---8-8-8-8-8---
E|---4-------------------------------

   "Nothing can deter you..."
   F     C#    G#    D#

E|-------------------------
B|-------------------------
G|-------------------------
D|-------6666--------8888--
A|-3333--4444--6666--6666--
E|-1111--------4444--------

  "And I got this hunch..."
    A#   D#   A#   D#   A#   D#   G#
e|------------------------------------------
B|------------------------------------------
G|------------------------------------------
D|-------8888------8888------8888-----6666--
A|--8888-6666-8888-6666-8888-6666-66666666--
E|--6666------6666------6666------44444444--

  CHORUS
     A#   D#   G#   D#
E|-----------------------
B|-----------------------
G|-----------------------
D|--------8888------8888-
A|---8888-6666-6666-6666-
E|---6666------4444------
 
  FILL OVER CHORUS

e|-----------------------
B|--11-11-11-11-11-11---- etc.
G|--10-10-10-10-10-10----
D|-----------------------
A|-----------------------
E|-----------------------

   OVER THE HARMONY IN THE CHORUS THIS IS PLAYED
    "Mel o   deeeeeeeeeee"    "mel  o   deeeeeeeeee"
e|---------------------------------------------------
B|---3--/6----9-----8h9p8----------------------------
G|-----------------------------7---/10---------------
D|---------------------------------------10--8h10p8--
A|---------------------------------------------------
E|---------------------------------------------------

   SOLO
e|------------------------------------------------------------------
B|------------------------------------------------------------------
G|------10--8--6-5--------------------------------------------------
D|--/10-------------8--6--8--6/8-8/10--------5-6--8--10h11p10~------
A|-------------------------------------8-8~-------------------------
E|------------------------------------------------------------------
 
  END OF SONG
  "but I won't live with out    mel o dy"
e|-------------------------------------------
B|-------------------------------------------
G|--------10----8----6---5-8-----6--5--3-----
D|-----10------------------------------------
A|-------------------------------------------
E|-------------------------------------------
Добавлено: 29.10.2013
Другие материалы по этой песне:
  • Аккорды и текст

Страница создана 29.06.2012
http://primanota.ru/bad-religion/a-world-without-melody-chords.htm
Привет, Гость.
Предлагаем пройти революционный курс по гитаре.
Подарок от PrimaNota.Ru, забирай!