PrimaNota.ru - самый крупный в мире бесплатный архив песенных текстов, аккордов, табулатур и нот


Bad N3wz - Key To The Gates Of Insanity - таба, видео

Регистрация Запомнить меня
Войти через:  Facebook Google Twitter Vk Yandex Mail.ru

Bad N3wz - Key To The Gates Of Insanity - таба, видео

Печатать
Просмотров: 90
this is the song 'key to the gates of insanity' played by
BAD N3WZ on MTV unplugged in 1993.
tabbed by Austin BAD
 
Standard tuning
4/4 timing
 
intro     (played with flange or phaser)
--------------------------
--------------------------
---0----5-----------------
--2----5----5---5---------
-0----3----5-5-5----------
----------3---3-----------
 
verse
-------------------------------------
-------------------------------------
--o---o-----5---5--------------------
-2-2-2-----5-5-5-----5---5----3---3--
0---0-----3---3-----5-5-5----3-3-3---
-------------------3---3----1---1----
 
chorus  (distortion) play to whatever rhythm feels right.
------------------------
------------------------
-2----5-----------------
-2----5---5---3---------
-0----3---5---3---------
----------3---1---------
 
verse 2
-------------------------------------
-------------------------------------
--0---0-----5---5--------------------
-2-2-2-----5-5-5-----5---5----3---3--
0---0-----3---3-----5-5-5----3-3-3---
-------------------3---3----1---1----
 
chorus 2
------------------------
------------------------
-2----5-----------------
-2----5---5---3---------
-0----3---5---3---------
----------3---1---------
 
solo
-------------------------------
-12^---10--------------10------
-----------11~~~--9-11----11---
-------------------------------
-------------------------------
-------------------------------
 
-------------------------------
-12^---10--------------10------
-----------11~~~--9-11----11---
-------------------------------
-------------------------------
-------------------------------
 
-------------------------------
-12-12---14-14--17-17--19^21---
-------------------------------
-------------------------------
-------------------------------
-------------------------------
 

-------------------------------
-12^---10--------------10------
-----------11~~~--9-11----11---
-------------------------------
-------------------------------
-------------------------------
 
outro
--------------------------
--------------------------
---0----5-----------------
--2----5----5---5---------
-0----3----5-5-5----------
----------3---3-----------
 
and thats all there is to it.

     
Добавлено: 22.08.2013
Другие материалы по этой песне:
  • Аккорды и текст

Страница создана 22.08.2013
http://primanota.ru/bad-n3wz/key-to-the-gates-of-insanity-chords.htm
Привет, Гость.
Предлагаем пройти революционный курс по гитаре.
Подарок от PrimaNota.Ru, забирай!