PrimaNota.ru - самый крупный в мире бесплатный архив песенных текстов, аккордов, табулатур и нот


Bad Dogs - Rollin Fatties - таба, видео

Регистрация Запомнить меня
Войти через:  Facebook Google Twitter Vk Yandex Mail.ru

Bad Dogs - Rollin Fatties - таба, видео

Печатать
Просмотров: 84
e|----------------------------------------------|
B|----------------------------------------------|
G|----------------------------------------------|
D|----------------------------------------------|  x2
A|--------5-6-5------7-8-7------5-6-5-3W-2-1-2-3|
D|--2-2-2------2-2-2------2-2-2-----------------|

e|------------------------------------------------------------|
B|------------------------------------------------------------|
G|------------------------------------------------------------|
D|------------------------------------------------------------|
A|-------------------------2-2-2-2-2--------------------------|
D|-0-0-0-0-0-0---2-2-2-2-2-----------0-0-0-0-0-0-0-0-0-0-0-0--|

e|------------------------------------------------------------|
B|------------------------------------------------------------|
G|----------------------------11-11-11-11-11--------16-16-16--|
D|-12-12-12-12-12-10-10-10-10---------------19-19-19----------| x3
A|------------------------------------------------------------|
D|------------------------------------------------------------|

e|----------------------------------------------|
B|----------------------------------------------|
G|----------------------------------------------|
D|----------------------------------------------|  x2
A|--------5-6-5------7-8-7------5-6-5-3W-2-1-2-3|
D|--2-2-2------2-2-2------2-2-2-----------------|

e|------------------------------------------------------------|
B|------------------------------------------------------------|
G|------------------------------------------------------------|
D|------------------------------------------------------------|
A|-------------------------2-2-2-2-2--------------------------|
D|-0-0-0-0-0-0---2-2-2-2-2-----------0-0-0-0-0-0-0-0-0-0-0-0--|

e|------------------------------------------------------------|
B|------------------------------------------------------------|
G|------------------------------------------------------------|
D|------------------------------------------------------------|
A|---------5-5-5-5-5-------1-1-1-1-1----------0-0-0-0-0-0-1-1-|
D|-3-1-3-1-3--------9-7-9-7---------2-2-2-2-2-0-0-0-0-0-0-1-1-|

e|-------------------------------------------------|
B|-------------------------------------------------|
D|-------------------------------------------------|
A||--------5-6-5------7-8-7------5-6-5-3W-2-1-2-3=-|
D|--2-2-2------2-2-2------2-2-2--------------------|


Outro 

e|----------------------------------------------|
B|----------------------------------------------|
G|----------------------------------------------|
D|----------------------------------------------|  
A|--------5-6-5------7-8-7------5-6-5-3W-2-1-2-3|
D|--2-2-2------2-2-2------2-2-2-----------------|
as you reach this point fade out
e|----------------------------------------------|
B|----------------------------------------------|
G|----------------------------------------------|
D|----------------------------------------------|  
A|--------5-6-5------7-8-7------5-6-5-3W-2-1-2-3|
D|--2-2-2------2-2-2------2-2-2-----------------|
Добавлено: 23.07.2013
Другие материалы по этой песне:
  • Аккорды и текст

Страница создана 23.07.2013
http://primanota.ru/bad-dogs/rollin-fatties-chords.htm
Привет, Гость.
Предлагаем пройти революционный курс по гитаре.
Подарок от PrimaNota.Ru, забирай!