PrimaNota.ru - самый крупный в мире бесплатный архив песенных текстов, аккордов, табулатур и нот


Bad Dogs - Its Over - таба, видео

Регистрация Запомнить меня
Войти через:  Facebook Google Twitter Vk Yandex Mail.ru

Bad Dogs - Its Over - таба, видео

Печатать
Просмотров: 85
Intro\Verse
|------------------------------------------|
|------------------------------------------|
|------------------------------------------|
|--6-6-6-6--6-6-6-6-7--7-7-7-7--7-7-7-7-6--|
|--6-6-6-6--6-6-6-6-7--7-7-7-7--7-7-7-7-6--|
|--4-4-4-4--4-4-4-4-5--5-5-5-5--5-5-5-5-4--|

Chorus
|--------------------------------------------|
|--------------------------------------------|
|--------------------------------------------|
|--6-6-6-6-7-6-6-6-6-7--7-7-7-7-6-7-7-7-7-6--|
|--6-6-6-6-7-6-6-6-6-7--7-7-7-7-6-7-7-7-7-6--|
|--4-4-4-4-5-4-4-4-4-5--5-5-5-5-4-5-5-5-5-4--|

Verse
|------------------------------------------|
|------------------------------------------|
|------------------------------------------|
|--6-6-6-6--6-6-6-6-7--7-7-7-7--7-7-7-7-6--|
|--6-6-6-6--6-6-6-6-7--7-7-7-7--7-7-7-7-6--|
|--4-4-4-4--4-4-4-4-5--5-5-5-5--5-5-5-5-4--|

Chorus
|--------------------------------------------|
|--------------------------------------------|
|--------------------------------------------|
|--6-6-6-6-7-6-6-6-6-7--7-7-7-7-6-7-7-7-7-6--|
|--6-6-6-6-7-6-6-6-6-7--7-7-7-7-6-7-7-7-7-6--|
|--4-4-4-4-5-4-4-4-4-5--5-5-5-5-4-5-5-5-5-4--|

Solo
|---------------------------------------------------------------------|
|----------/8-/8-/9-9-9-9-10-10-9-9-9-8-8-8------------/8-/8-/10-/12--|
|--7\--7\-------------------------------------7/-8/-9/----------------|
|---------------------------------------------------------------------|
|---------------------------------------------------------------------|
|---------------------------------------------------------------------|

|----------------------------------------------------------------------|
|----------------------------------------------------------------------|
|-----------------------/7-9--8-9-10-11-11-15-11-9-7-5-----------------|
|--------------4-6-4-6---------------------------------5---------------|
|------2-4-3-5-------------------------------------------5-3-----------|
|--2-4-------------------------------------------------------5-3-2--0--|

Verse
|------------------------------------------|
|------------------------------------------|
|------------------------------------------|
|--6-6-6-6--6-6-6-6-7--7-7-7-7--7-7-7-7-6--|
|--6-6-6-6--6-6-6-6-7--7-7-7-7--7-7-7-7-6--|
|--4-4-4-4--4-4-4-4-5--5-5-5-5--5-5-5-5-4--|

Chorus
|--------------------------------------------|
|--------------------------------------------|
|--------------------------------------------|
|--6-6-6-6-7-6-6-6-6-7--7-7-7-7-6-7-7-7-7-6--|
|--6-6-6-6-7-6-6-6-6-7--7-7-7-7-6-7-7-7-7-6--|
|--4-4-4-4-5-4-4-4-4-5--5-5-5-5-4-5-5-5-5-4--|

Outro
|-------------------------------------------------|
|-------------------------------------------------|
|--/7-/7-/7-/8------------------------------------|
|-------------------------12\--12\---12\----------|
|--------------/12--/13------------------12\------|
|--------------------------------------------11\--|
Добавлено: 14.10.2013
Другие материалы по этой песне:
  • Аккорды и текст

Страница создана 14.10.2013
http://primanota.ru/bad-dogs/its-over-chords.htm
Привет, Гость.
Предлагаем пройти революционный курс по гитаре.
Подарок от PrimaNota.Ru, забирай!