PrimaNota.ru - самый крупный в мире бесплатный архив песенных текстов, аккордов, табулатур и нот


Bad Dogs - Im A Lonely Little Fucker - таба, видео

Регистрация Запомнить меня
Войти через:  Facebook Google Twitter Vk Yandex Mail.ru

Bad Dogs - Im A Lonely Little Fucker - таба, видео

Печатать
Просмотров: 300
|-------------------------------------------------------------------------|
|-------------------------------------------------------------------------|
|-------------------------------------------------------------------------|
|-------------------------------------------------------------------------|
|-------7---7-------------7---8-------------7----8----------------7----8--|
|---8-8---8---8-8-8-8-8-8---8---8-8-8-11-11---11---11-11-11-11-11---11--11|
  
|---------------------------------------------------------------------------|
|---------------------------------------------------------------------------|
|---------------------------------------------------------------------------|
|------------------------------------------12-----------------------12------|
|------------8----12----------------12-----------------------8--------------|
|11-11-12-12---12----12-12-12-12-12----12-----12-12-12-12-12----12-----12-12|
 

|------------------------------|
|------------------------------|
|------------------------------|
|-----------------12-----------|
|----------12------------------|
|-12-12-12----12-----12-12-12--|     (Repeat 3x)
 

|-------------------|---------------------------------------------------|
|-------------------|---------------------------------------------------|
|-------------------|---------------------------------------------------|
|-000000--0000------|----0--000--0---0--000-0---0--000--0--0--000--0----|
|-000000--0000--(8x)|----0--000--0---0--000-0---0--000--0--0--000--0----|
|-000000--0000------|----0--000--0---0--000-0---0--000--0--0--000--0----|
   (PM whole Break down)..... and this part..!


|----------------------------------------------------------------------|
|----------------------------------------------------------------------|
|----------------------------------------------------------------------|
|--------------------------7p5-----------------------------8p5h7p5-----|
|------8p5h7p5-----8p5h7p5-----7p5----8p5h7h5-----8p5h7h5--------------|
|---00----------00-----------------00---------00-----------------------|
          

|----------------------------------------------------------------------|
|----------------------------------------------------------------------|
|----------------------------------------------------------------------|
|--------------------------7p5-----------------------------8p5h7p5^----|
|------8p5h7p5-----8p5h7p5-----7p5----8p5h7h5-----8p5h7h5--------------|
|---00----------00-----------------00---------00--------------------(2x) 
         


|-----------------------------------------------------------|
|-----------------------------------------------------------|
|-----------------------------------------------------------|
|--00--00-00--00--00--00------------------------7p5---------|
|--00--00-00--00--00--00-----8p5h7p5----8p5h7h5-----7p5-----|
|--00--00-00--00--00--00--00---------00---------------------|
        
|------------------------------------------------|
|------------------------------------------------|
|------------------------------------------------|
|--00--00-00--00--00--00-------------8p5h7p5-----|
|--00--00-00--00--00--00-----8p5h7h5-------------|
|--00--00-00--00--00--00--00---------------------|
 

|---------------------|-------------------------|--------------|
|---------------------|-------------------------|--------------|
|---------------------|-------------------------|--------------|
|--00--00--00--00-00-0|---00-00-00--00-00-00----|-0-0-0--------|
|--00--00--00--00-00-0|---00-00-00--00-00-00----|-0-0-0--------|
|--00--00--00--00-00-0|---00-00-00--00-00-00-(4x|-0-0-0-00-00--|
Добавлено: 02.08.2013
Другие материалы по этой песне:
  • Аккорды и текст

Страница создана 02.08.2013
http://primanota.ru/bad-dogs/im-a-lonely-little-fucker-chords.htm
Привет, Гость.
Предлагаем пройти революционный курс по гитаре.
Подарок от PrimaNota.Ru, забирай!