PrimaNota.ru - самый крупный в мире бесплатный архив песенных текстов, аккордов, табулатур и нот


Bad Dogs - Horses - таба, видео

Регистрация Запомнить меня
Войти через:  Facebook Google Twitter Vk Yandex Mail.ru

Bad Dogs - Horses - таба, видео

Печатать
Просмотров: 184
		6.Horses

Tuning Drop-D

Intro
e----------------------------------------------------------------|
B----------------------------------------------------------------|
G----------------------------------------------------------------|
D---4----4-4--4-4--4---2---2--2-----4----4-4--4-4--4---0----0--0-|
A---4----4-4--4-4--4---2---2--2-----4----4-4--4-4--4---0----0--0-|
D---4----4-4--4-4--4---2---2--2-----4----4-4--4-4--4---0----0--0-|

Verse play 4 times
e--------------------------------------------------------------0---|
B--------------------------------------------------------------0-0-|
G---------------------------------------------------------0--0-0-0-|
D---4----4-4--4-4--4---2---2--2-----4----4-4--4-4--4---0--0--0-0-0-|
A---4----4-4--4-4--4---2---2--2-----4----4-4--4-4--4---0--0--0---0-|
D---4----4-4--4-4--4---2---2--2-----4----4-4--4-4--4---0--0--0-----|

Chorus play 4 times
e---------------------------------------------------------|
B---------------------------------------------------------|
G---------------------------------------------------------|
D--7---7---7--X-X--X-X-8---8----2---2---2--X-X--X-X-3---3-|
A--7---7---7--X-X--X-X-8---8----2---2---2--X-X--X-X-3---3-|
D--7---7---7--8-8--8-8-8---8----2---2---2--3-3--3-3-3---3-|

Verse play 4 times
e--------------------------------------------------------------0---|
B--------------------------------------------------------------0-0-|
G---------------------------------------------------------0--0-0-0-|
D---4----4-4--4-4--4---2---2--2-----4----4-4--4-4--4---0--0--0-0-0-|
A---4----4-4--4-4--4---2---2--2-----4----4-4--4-4--4---0--0--0---0-|
D---4----4-4--4-4--4---2---2--2-----4----4-4--4-4--4---0--0--0-----|

Chorus play 4 times
e---------------------------------------------------------|
B---------------------------------------------------------|
G---------------------------------------------------------|
D--7---7---7--X-X--X-X-8---8----2---2---2--X-X--X-X-3---3-|
A--7---7---7--X-X--X-X-8---8----2---2---2--X-X--X-X-3---3-|
D--7---7---7--8-8--8-8-8---8----2---2---2--3-3--3-3-3---3-|

Solo
e-------------------------------------------------------|
B-------------------------------------------------------|
G-9-9-9-8-6-----6---6-----7-7---4-------------9-9-9-8-6-|
D-----------7-7---7---4-6-----6---2-0-4-6-8-9-----------|
A-------------------------------------------------------|
D-------------------------------------------------------|

e----------------------------------------------------------|
B----------------------------------------------------------|
G----------------------------------------------------------|
D-11-11-13-13-15-14-14-13-12-11-11-12-12-11-11-13-13-14-14-|
A----------------------------------------------------------|
D----------------------------------------------------------|

Chorus play 4 times
e---------------------------------------------------------|
B---------------------------------------------------------|
G---------------------------------------------------------|
D--7---7---7--X-X--X-X-8---8----2---2---2--X-X--X-X-3---3-|
A--7---7---7--X-X--X-X-8---8----2---2---2--X-X--X-X-3---3-|
D--7---7---7--8-8--8-8-8---8----2---2---2--3-3--3-3-3---3-|
Добавлено: 25.07.2013
Другие материалы по этой песне:
  • Аккорды и текст

Страница создана 25.07.2013
http://primanota.ru/bad-dogs/horses-chords.htm
Привет, Гость.
Предлагаем пройти революционный курс по гитаре.
Подарок от PrimaNota.Ru, забирай!