PrimaNota.ru - самый крупный в мире бесплатный архив песенных текстов, аккордов, табулатур и нот


Bad Dogs - Emo Guys Are Little Bitches - таба, видео

Регистрация Запомнить меня
Войти через:  Facebook Google Twitter Vk Yandex Mail.ru

Bad Dogs - Emo Guys Are Little Bitches - таба, видео

Печатать
Просмотров: 158
12.Jungle Bush
Intro
e------------------------------------------------------|
B------------------------------------------------------|
G------------------------------------------------------|
D-----------------------------------6-6-6-6--8-8-8-8---|
A---8--8--8----/8-8-8-8-8--6-6-6-6--6-6-6-6--8-8-8-8---|
E---8--8--8\---/8-8-8-8-8--6-6-6-6---------------------|

Verse p.m.
e-----------------------------------------|
B-----------------------------------------|
G-----------------------------------------|
D----------------------6-6-6-6--8-8-8-8---|
A--8-8-8-8-8--6-6-6-6--6-6-6-6--8-8-8-8---|
E--8-8-8-8-8--6-6-6-6---------------------|

chorus
e----------------------------------------------------|
B----------------------------------------------------|
G----------------------------------------------------|
D---------------------------6-6--8-8-8--6-6-6-5-5-5--|
A--8-8--6-6-6--8-8-8-9-9-9--6-6--8-8-8--6-6-6-5-5-5--|
E--8-8--6-6-6--8-8-8-9-9-9---------------------------|

solo
e----------------------------------------------------|
B----------------------------------------------------|
G----------------------------------------------------|
D-----------------8\6~--6--6-5-----------------------|
A--8~--8~--8--10----------------7/9-9-9-11---12------|
E----------------------------------------------------|


Добавлено: 30.10.2013
Другие материалы по этой песне:
  • Аккорды и текст

Страница создана 30.10.2013
http://primanota.ru/bad-dogs/emo-guys-are-little-bitches-chords.htm
Привет, Гость.
Предлагаем пройти революционный курс по гитаре.
Подарок от PrimaNota.Ru, забирай!