PrimaNota.ru - самый крупный в мире бесплатный архив песенных текстов, аккордов, табулатур и нот


Bad Dogs - Dumb Farm Girl And Her Retarded Boyfriend - таба, видео

Регистрация Запомнить меня
Войти через:  Facebook Google Twitter Vk Yandex Mail.ru

Bad Dogs - Dumb Farm Girl And Her Retarded Boyfriend - таба, видео

Печатать
Просмотров: 125
Уроки эстрадного вокала в Санкт-Петербурге
bad dogs - dumb farm girl and her retarded boyfriend


remember to use heavy distortion
Intro
|--------------------------------------------------------------------------|
|--------------------------------------------------------------------------|
|--------------------------------------------------------------------------|
|-(let---6-6-6-5-4-3-2-2-6-6-6-5-4-3-2-2-2-6-6-6-5-4-3-2-2-6-6-6-5-4-3-2-2-|
|--ring)-6-6-6-5-4-3-2-2-6-6-6-5-4-3-2-2-2-6-6-6-5-4-3-2-2-6-6-6-5-4-3-2-2-|
|--------4-4-4-3-2-1-0-0-4-4-4-3-2-1-0-0-0-4-4-4-3-2-1-0-0-4-4-4-3-2-1-0-0-|

|-----------------------------------------------------------------------------6---------|
|----------------------------------------------------------------------------(9)bend up-|
|---------------------------------------------------------------------------------------|
|-6-6-6-5-4-3-2-2-6-6-6-5-4-3-2-2-2-6-6-6-5-4-3-2-2-6-6-6-5-4-3-2-2-2-------------------|
|-6-6-6-5-4-3-2-2-6-6-6-5-4-3-2-2-2-6-6-6-5-4-3-2-2-6-6-6-5-4-3-2-2-2-2-2---------------|
|-4-4-4-3-2-1-0-0-4-4-4-3-2-1-0-0-0-4-4-4-3-2-1-0-0-4-4-4-3-2-1-0-0-0-0-0---------------|

Verse play 7 times
|-------------------------------------------------------------------|
|-------------------------------------------------------------------|
|-------------------------------------------------------------------|
|-------------------------------------------------------------------|
|-------------------------------------------------------------------|
|-4-4-4-3-2-1-0-0-4-4-4-3-2-1-0-0-0-4-4-4-3-2-1-0-0-4-4-4-3-2-1-0-0-|

play 7th time
|-------------------------------------------------------------------6---------|
|------------------------------------------------------------------(9)bend up-|
|-----------------------------------------------------------------------------|
|-----------------------------------------------------------------------------|
|-----------------------------------------------------------------------------|
|-4-4-4-3-2-1-0-0-4-4-4-3-2-1-0-0-0-4-4-4-3-2-1-0-0-4-4-4-3-2-1-0-0-----------|

Chorus play 3 times
|--------------------------------------------------------------------|
|--------------------------------------------------------------------|
|--------------------------------------------------------------------|
|--6-6-6-5-4-3-2-2-6-6-6-5-4-3-2-2-2-6-6-6-5-4-3-2-2-6-6-6-5-4-3-2-2-|
|--6-6-6-5-4-3-2-2-6-6-6-5-4-3-2-2-2-6-6-6-5-4-3-2-2-6-6-6-5-4-3-2-2-|
|--4-4-4-3-2-1-0-0-4-4-4-3-2-1-0-0-0-4-4-4-3-2-1-0-0-4-4-4-3-2-1-0-0-|

|--------------------------------------------------------------------------------------|
|------------------------------------------------------------------------(tremlo pick)-|
|-------------------------------------------------------------------------4-4-4-4-4----|
|-6-6-6-5-4-3-2-2-6-6-6-5-4-3-2-2-2-6-6-6-5-4-3-2-2-6-6-6-5-4-3-2-2-2-2-2--------------|
|-6-6-6-5-4-3-2-2-6-6-6-5-4-3-2-2-2-6-6-6-5-4-3-2-2-6-6-6-5-4-3-2-2-2-2-2--------------|
|-4-4-4-3-2-1-0-0-4-4-4-3-2-1-0-0-0-4-4-4-3-2-1-0-0-4-4-4-3-2-1-0-0-0-0-0--------------|

2nd Verse play 7 times
|-------------------------------------------------------------------|
|-------------------------------------------------------------------|
|-------------------------------------------------------------------|
|-------------------------------------------------------------------|
|-------------------------------------------------------------------|
|-4-4-4-3-2-1-0-0-4-4-4-3-2-1-0-0-0-4-4-4-3-2-1-0-0-4-4-4-3-2-1-0-0-|

play 7th time
|-------------------------------------------------------------------6---------|
|------------------------------------------------------------------(9)bend up-|
|-----------------------------------------------------------------------------|
|-----------------------------------------------------------------------------|
|-----------------------------------------------------------------------------|
|-4-4-4-3-2-1-0-0-4-4-4-3-2-1-0-0-0-4-4-4-3-2-1-0-0-4-4-4-3-2-1-0-0-----------|

Chorus play 3 times
|--------------------------------------------------------------------|
|--------------------------------------------------------------------|
|--------------------------------------------------------------------|
|--6-6-6-5-4-3-2-2-6-6-6-5-4-3-2-2-2-6-6-6-5-4-3-2-2-6-6-6-5-4-3-2-2-|
|--6-6-6-5-4-3-2-2-6-6-6-5-4-3-2-2-2-6-6-6-5-4-3-2-2-6-6-6-5-4-3-2-2-|
|--4-4-4-3-2-1-0-0-4-4-4-3-2-1-0-0-0-4-4-4-3-2-1-0-0-4-4-4-3-2-1-0-0-|

|--------------------------------------------------------------------------------------|
|------------------------------------------------------------------------(tremlo pick)-|
|-------------------------------------------------------------------------4-4-4-4-4----|
|-6-6-6-5-4-3-2-2-6-6-6-5-4-3-2-2-2-6-6-6-5-4-3-2-2-6-6-6-5-4-3-2-2-2-2-2--------------|
|-6-6-6-5-4-3-2-2-6-6-6-5-4-3-2-2-2-6-6-6-5-4-3-2-2-6-6-6-5-4-3-2-2-2-2-2--------------|
|-4-4-4-3-2-1-0-0-4-4-4-3-2-1-0-0-0-4-4-4-3-2-1-0-0-4-4-4-3-2-1-0-0-0-0-0--------------|

2nd Verse play 7 times
|-------------------------------------------------------------------|
|-------------------------------------------------------------------|
|-------------------------------------------------------------------|
|-------------------------------------------------------------------|
|-------------------------------------------------------------------|
|-4-4-4-3-2-1-0-0-4-4-4-3-2-1-0-0-0-4-4-4-3-2-1-0-0-4-4-4-3-2-1-0-0-|

play 7th time
|-------------------------------------------------------------------6---------|
|------------------------------------------------------------------(9)bend up-|
|-----------------------------------------------------------------------------|
|-----------------------------------------------------------------------------|
|-----------------------------------------------------------------------------|
|-4-4-4-3-2-1-0-0-4-4-4-3-2-1-0-0-0-4-4-4-3-2-1-0-0-4-4-4-3-2-1-0-0-----------|

Chorus play 3 times
|--------------------------------------------------------------------|
|--------------------------------------------------------------------|
|--------------------------------------------------------------------|
|--6-6-6-5-4-3-2-2-6-6-6-5-4-3-2-2-2-6-6-6-5-4-3-2-2-6-6-6-5-4-3-2-2-|
|--6-6-6-5-4-3-2-2-6-6-6-5-4-3-2-2-2-6-6-6-5-4-3-2-2-6-6-6-5-4-3-2-2-|
|--4-4-4-3-2-1-0-0-4-4-4-3-2-1-0-0-0-4-4-4-3-2-1-0-0-4-4-4-3-2-1-0-0-|

|--------------------------------------------------------------------------------------|
|------------------------------------------------------------------------(tremlo pick)-|
|-------------------------------------------------------------------------4-4-4-4-4----|
|-6-6-6-5-4-3-2-2-6-6-6-5-4-3-2-2-2-6-6-6-5-4-3-2-2-6-6-6-5-4-3-2-2-2-2-2--------------|
|-6-6-6-5-4-3-2-2-6-6-6-5-4-3-2-2-2-6-6-6-5-4-3-2-2-6-6-6-5-4-3-2-2-2-2-2--------------|
|-4-4-4-3-2-1-0-0-4-4-4-3-2-1-0-0-0-4-4-4-3-2-1-0-0-4-4-4-3-2-1-0-0-0-0-0--------------|

Solo
|-----------------------------------------------------------------------------------------------|
|---------(7)-7--7-9-7-9-7-9-(9)--7-9-7-9-7-9-(9)--7-9-7-9-7-9-(9)--7-6-4-----------------------|
|-7-7-5-7-----------------------------------------------------------------6-4-2-0--3-5-5--3-----|
|-------------------------------------------------------------------------------------------6-4-|
|-----------------------------------------------------------------------------------------------|
|-----------------------------------------------------------------------------------------------|

|--------------------------------------6---6---6---6-------------------------------------------|
|-------------------------------------(9)-(9)-(9)-(9)-9-8--------------------------------------|
|----------------------------------------------------------7-5-4--2--0-------------------------|
|-----------------------------------------------------------------------3--3-------------7--8--|
|-6--4-4-3--------------------------------------------------------------------3-1-3-6-7--------|
|--------5-3-3-0-1-1-0-1-3-3-2-3---------------------------------------------------------------|

3rd Verse play 7 times
|-------------------------------------------------------------------|
|-------------------------------------------------------------------|
|-------------------------------------------------------------------|
|-------------------------------------------------------------------|
|-------------------------------------------------------------------|
|-4-4-4-3-2-1-0-0-4-4-4-3-2-1-0-0-0-4-4-4-3-2-1-0-0-4-4-4-3-2-1-0-0-|

play 7th time
|---------------------------------------------------------------------6---6---6---6--|
|--------------------------------------------------------------------(9)-(9)-(9)-(9)-|
|------------------------------------------------------------------------------------|
|------------------------------------------------------------------------------------|
|------------------------------------------------------------------------------------|
|-4-4-4-3-2-1-0-0-4-4-4-3-2-1-0-0-0-4-4-4-3-2-1-0-0-4-4-4-3-2-1-0-0------------------|

Chorus play 3 times
|--------------------------------------------------------------------|
|--------------------------------------------------------------------|
|--------------------------------------------------------------------|
|--6-6-6-5-4-3-2-2-6-6-6-5-4-3-2-2-2-6-6-6-5-4-3-2-2-6-6-6-5-4-3-2-2-|
|--6-6-6-5-4-3-2-2-6-6-6-5-4-3-2-2-2-6-6-6-5-4-3-2-2-6-6-6-5-4-3-2-2-|
|--4-4-4-3-2-1-0-0-4-4-4-3-2-1-0-0-0-4-4-4-3-2-1-0-0-4-4-4-3-2-1-0-0-|

|---------------------------------------------------------------------------------------|
|-------------------------------------------------------------------------(tremlo pick)-|
|--------------------------------------------------------------------------4-4-4-4-4----|
|-6-6-6-5-4-3-2-2-6-6-6-5-4-3-2-2-2-6-6-6-5-4-3-2-2-6-6-6-5-4-3-2-2-2-2-2---------------|
|-6-6-6-5-4-3-2-2-6-6-6-5-4-3-2-2-2-6-6-6-5-4-3-2-2-6-6-6-5-4-3-2-2-2-2-2---------------|
|-4-4-4-3-2-1-0-0-4-4-4-3-2-1-0-0-0-4-4-4-3-2-1-0-0-4-4-4-3-2-1-0-0-0-0-0---------------|

End with
|-------------------------------|
|-4-4-4--2-2--------------------|
|-------------5-5-3-------------|
|--------------------5-4-2-2--0-|
|-------------------------------|
Добавлено: 07.07.2013
Другие материалы по этой песне:
  • Аккорды и текст

Страница создана 07.07.2013
http://primanota.ru/bad-dogs/dumb-farm-girl-and-her-retarded-boyfriend-chords.htm
Привет, Гость.
Предлагаем пройти революционный курс по гитаре.
Подарок от PrimaNota.Ru, забирай!