PrimaNota.ru - самый крупный в мире бесплатный архив песенных текстов, аккордов, табулатур и нот


Bad Dogs - Coming Mother - таба, видео

Регистрация Запомнить меня
Войти через:  Facebook Google Twitter Vk Yandex Mail.ru

Bad Dogs - Coming Mother - таба, видео

Печатать
Просмотров: 101
intro
e------------------------------------------------|
B------------------------------------------------|
G------------------------------------------------|
D------------------------------------------------|
A------------------0-0---------------0-2-0-2-0-3-|
E--2-0-2-0-2-0-3-0-----0-2-0-2-0-3-0-------------|

verse
e--------------------------------------------------------------|
B--------------------------------------------------------------|
G--------------------------------------------------------------|
D--------------------------------------------------------------|
A------------------------0-0-------------------0-2-0-0-2-0-0-2-|
E--2-0-0-2-0-0-2-0-0-2-0-----0-2-0-0-2-0-0-2-0-----------------|

e------------------------------------------------------------|
B------------------------------------------------------------|
G------------------------------------------------------------|
D------------------------------------------------------------|
A------------------------0-------------------0-3-0-0-3-0-0-3-|
E--3-0-0-3-0-0-3-0-0-3-0---0-3-0-0-3-0-0-3-0-----------------|

Chorus
e----------------------------------------|
B----------------------------------------|
G----------------------------------------|
D--4-4-4-2-0-4-2-2-2-0-0-2-2-2-0-4-2-4-2-|
A--4-4-4-2-0-4-2-2-2-0-0-2-2-2-0-4-2-4-2-|
E--2-2-2-0-0-2-0-0-0-0-0-0-0-0-0-2-0-2-0-|

verse
e--------------------------------------------------------------|
B--------------------------------------------------------------|
G--------------------------------------------------------------|
D--------------------------------------------------------------|
A------------------------0-0-------------------0-2-0-0-2-0-0-2-|
E--2-0-0-2-0-0-2-0-0-2-0-----0-2-0-0-2-0-0-2-0-----------------|

e------------------------------------------------------------|
B------------------------------------------------------------|
G------------------------------------------------------------|
D------------------------------------------------------------|
A------------------------0-------------------0-3-0-0-3-0-0-3-|
E--3-0-0-3-0-0-3-0-0-3-0---0-3-0-0-3-0-0-3-0-----------------|

Chorus
e----------------------------------------|
B----------------------------------------|
G----------------------------------------|
D--4-4-4-2-0-4-2-2-2-0-0-2-2-2-0-4-2-4-2-|
A--4-4-4-2-0-4-2-2-2-0-0-2-2-2-0-4-2-4-2-|
E--2-2-2-0-0-2-0-0-0-0-0-0-0-0-0-2-0-2-0-|
Добавлено: 26.08.2013
Другие материалы по этой песне:
  • Аккорды и текст

Страница создана 26.08.2013
http://primanota.ru/bad-dogs/coming-mother-chords.htm
Привет, Гость.
Предлагаем пройти революционный курс по гитаре.
Подарок от PrimaNota.Ru, забирай!