PrimaNota.ru - самый крупный в мире бесплатный архив песенных текстов, аккордов, табулатур и нот


Bad Dogs - Blue Dinosaurs Have Control Over Planet Junikimo - таба

Регистрация Запомнить меня
Войти через:  Facebook Google Twitter Vk Yandex Mail.ru

Bad Dogs - Blue Dinosaurs Have Control Over Planet Junikimo - таба

Печатать
Просмотров: 99
Bad Dogs

Blue Dinosaurs Have Control Over Planet Junikimo

Intro
e----------------------------0----------|
B----------------------------0----------|
G---------3---0-----------5--0----------|
D-----3---3---0--x-x-5----5--0-----3--0-|
A-----3---3---0--x-x-5-5--5--0--3--3--0-|
E-0-0-1-0-1-1----x-x---3--3--0--1--1----|

Verse
e---------------------------0---------|
B---------------------------0---------|
G---------------------------0-------0-|
D-----3---3---0--x-x-5-5--5-0-0--3--0-|
A-----3---3---0--x-x-5-5--5---0--3--0-|
E-0-0-1-0-1-1-0--x-x---3--3---0--1----|

Chorus
e----------0--------------------0-------------------|
B----------0--------------------0--5----------------|
G----------0---2----------3-----0--5--5-x-x-------3-|
D--5-x-----0---2--x-x--0--3--3--0--5--5-x-x-------3-|
A--5----5--0---2--x-x--0--3--3-----3--3-x-x-------3-|
E--3----3--0---0--x-x--0--1--1--------------0-0-0-1-|

Verse
e---------------------------0---------|
B---------------------------0---------|
G---------------------------0-------0-|
D-----3---3---0--x-x-5-5--5-0-0--3--0-|
A-----3---3---0--x-x-5-5--5---0--3--0-|
E-0-0-1-0-1-1-0--x-x---3--3---0--1----|

Chorus
e----------0--------------------0-------------------|
B----------0--------------------0--5----------------|
G----------0---2----------3-----0--5--5-x-x-------3-|
D--5-x-----0---2--x-x--0--3--3--0--5--5-x-x-------3-|
A--5----5--0---2--x-x--0--3--3-----3--3-x-x-------3-|
E--3----3--0---0--x-x--0--1--1--------------0-0-0-1-|

Solo
e-----7-7-8---5-3-----------6-9-----------------|
B-6-7-------9-----3-5---5-6-----7-9-9--7-7-9-9--|
G-----------------------------------------------|
D-----------------------------------------------|
A-----------------------------------------------|
E-----------------------------------------------|

Verse
e---------------------------0---------|
B---------------------------0---------|
G---------------------------0-------0-|
D-----3---3---0--x-x-5-5--5-0-0--3--0-|
A-----3---3---0--x-x-5-5--5---0--3--0-|
E-0-0-1-0-1-1-0--x-x---3--3---0--1----|

Chorus
e----------0--------------------0-------------------|
B----------0--------------------0--5----------------|
G----------0---2----------3-----0--5--5-x-x-------3-|
D--5-x-----0---2--x-x--0--3--3--0--5--5-x-x-------3-|
A--5----5--0---2--x-x--0--3--3-----3--3-x-x-------3-|
E--3----3--0---0--x-x--0--1--1--------------0-0-0-1-|

Outro
e------------------------------------------0--0--0--0--0--0--0--0--0--0--0-|
B------------------------------------------0--0--0--0--0--0--0--0--0--0--0-|
G------------------------------------------0--0--0--0--0--0--0--0--0--0--0-|
D-----3---3---0--x-x-5---5----5------------0--0--0--0--0--0--0--0--0--0--0-|
A-----3---3---0--x-x-5---5----5------------0--0--0--0--0--0--0--0--0--0--0-|
E-0-0-1-1-1---0--x-x-3---3----3------------0--0--0--0--0--0--0--0--0--0--0-|
Добавлено: 04.11.2013
Другие материалы по этой песне:
  • Аккорды и текст

Страница создана 04.11.2013
http://primanota.ru/bad-dogs/blue-dinosaurs-have-control-over-planet-junikimo-chords.htm
Привет, Гость.
Предлагаем пройти революционный курс по гитаре.
Подарок от PrimaNota.Ru, забирай!