PrimaNota.ru - самый крупный в мире бесплатный архив песенных текстов, аккордов, табулатур и нот


Bad Copy - Metalac - таба, видео

Регистрация Запомнить меня
Войти через:  Facebook Google Twitter Vk Yandex Mail.ru

Bad Copy - Metalac - таба, видео

Печатать
Просмотров: 112
Уроки эстрадного вокала в Санкт-Петербурге
Uvod:


p1:

E|-------2-------2h3p2-----------------------|
B|-----3---3---3-------3---------------------|
G|---4-------4-------------------------------|  x3
D|-------------------------------------------|
A|-------------------------------------------|
E|-------------------------------------------|

p2:

E|----------------------------2--------2h3p2-|
B|-----3----3----3----3----3----3---3-------3|
G|---4----4----4----4----4--------4----------|
D|-------------------------------------------|
A|-------------------------------------------|
E|-------------------------------------------|

Strofa se ponavlja ovaj p1 stalno.

Refren:

Prvi put ide samo bas,
pa se u drugom ubacuje i gitara

E|-------------------------------------------|
B|-------------------------------------------|
G|--------4----------------------------------|  x4
D|--------4----------------------------------|
A|--------2----------------------------------|
E|-------------------------------------------|


E|-------------------------------------------|
B|-------------------------------------------|
G|-------------------------------------------|  x1
D|---------2-----4--2------------------------|
A|---2--5-----5--------5--2-2----------------|
E|-------------------------------------------|

pa opet strofa,i refren isto.

Kad je treca strofa,ima jedan deo,isekao sam kosu,i otisao u vojsku...Tu je samo bas i bubanj.

Ponovo refren,samo sto sad ide gitara odma sa basom. Dva puta. Pa se refren ponavlja i treci put,
malo je samo kraj drugaciji,ide ovako:

E|-------------------------------------------|
B|-------------------------------------------|
G|--------4----------------------------------|  x4
D|--------4----------------------------------|
A|--------2----------------------------------|
E|-------------------------------------------|


E|-------------------------------------------|
B|-------------------------------------------|
G|-------------------------------------------|  x1
D|---------2-----4--2------------------------|
A|---2--4-----4--------4--2-2----------------|
E|-------------------------------------------|


E|-------------------------------------------|
B|-------------------------------------------|
G|--------4----------------------------------|  x3
D|--------4----------------------------------|
A|--------2----------------------------------|
E|-------------------------------------------|

Pa ovaj deo,iz srca krv siklja...

E|-------------------------------------------|
B|-------------------------------------------|
G|--------4----------------------------------|  x3
D|--------4----------------------------------|
A|--------2----------------------------------|
E|-------------------------------------------|

Posle toga se ovaj deo ponavlja:

E|-------------------------------------------|
B|-------------------------------------------|
G|-------------------------------------------|  x8
D|---------2-----4--2------------------------|
A|---2--4-----4--------4--2-2----------------|
E|-------------------------------------------|

Добавлено: 18.10.2013
Другие материалы по этой песне:
  • Аккорды и текст

Страница создана 12.09.2013
http://primanota.ru/bad-copy/metalac-chords.htm
Привет, Гость.
Предлагаем пройти революционный курс по гитаре.
Подарок от PrimaNota.Ru, забирай!