PrimaNota.ru - самый крупный в мире бесплатный архив песенных текстов, аккордов, табулатур и нот


Bad Company - Weep No More - текст песни, бас-таба, видео

Регистрация Запомнить меня
Войти через:  Facebook Google Twitter Vk Yandex Mail.ru

Bad Company - Weep No More - текст песни, бас-таба, видео

Печатать
Просмотров: 149
Уроки эстрадного вокала в Санкт-Петербурге
Авторы музыки: Simon Kirke
Авторы текста: Simon Kirke
Weep No More
Taken from Bad Companys 1975 second album Straight Shooter
Bass performance Boz Burrell. Tab by bass50611. Straight forward song
Listen for the pauses and the rhythm and timing of the song. Note
The Bass chord at the end. Comments Are at  Bass254@btinternet.com

Intro:
    .       .       .           .            .      .        .       .
G|---------------------------------------------------------------------|
D|---------------------------------------------------------------------|
A|-------------------------------------------------------9-7-----------|
E|-14------13-------12-------12\7-----7-8-9-10------9-------10-------9-|

Verse:
G|--------------------------------------------------------------------|
D|--------------------------------------------------------------------|
A|-0-0-0-0-0-0-0---9-9-9-9---------7-7-7-7-7-7-7-7---7-7-7-7-7---5-4--|
E|-------------------------7-7-7-7----------------------------------7-|

G|-----------------------------------------------------------------|
D|-----------------------------------------------------------------|
A|---------------9-9-9-9---------7-7-7-7-7-7-7-7---8-8-8-8-8-8-8-8-|
E|-5-5-5-5-5-5-5---------7-7-7-7-----------------------------------|

Pre-Chorus:                                                      .   .   .
G|-------------------------------------------------------------------------|
D|-------------------------------------------------------------------------|
A|-9-9-9-9-9-9-9-7-5-5-5-5-5-5-7-9-9-9-9-9--7------------------------------|
E|--------------------------------------------9-7-7-7-7-7-7-7-7-10---9---7-|

Chorus:
G|------------------------------------------------------------------|
D|------------------------------------------------------------------|
A|--9-9-9-9-9--7-6------------6-7-8-9-9-9-9-9--7-6------------------|
E|----------------9-7-7-7-7-7---------------------9-7-7-7-7-7-7-7-7-|

Bridge:
   .     .     .    .        .     .         .   .
G|------------------------16\----------------------|
D|-------------------------------------------------|
A|-9-----8-----7-------------5-----4-----9-7-5---4-|
E|------------------7------------------------------|

Solo:  REPEAT VERSE

REPEAT PRE-CHORUS:

Outro:
   .    .   .    .   .   .
G|-------------------------------------------------------------|
D|-------------------------------------------------------------|
A|----------------------------9-9-9-9-9---7-6------------6-7-8-|
E|-10---9---7---10---9---7-------------------9-7-7-7-7-7-------|

                                                   (PLAY THIS BIT x9)
G|-------------------------------------------------------------------|
D|-------------------------------------------------------------------|
A|-9-9-9-9-9---7-6------------------9-9-9-9-9---7-6------------6-7-8-|
E|----------------9-7-7-7-7-7-7-7-7----------------9-7-7-7-7-7-------|

           .      .
G|--------------------------|
D|------------------------4-|
A|-9---7---5------4---------|
E|------------------------2-|
Добавлено: 14.05.2014
Вам также может быть интересно:
Другие материалы по этой песне:
  • Аккорды и текст

Страница создана 14.05.2014
http://primanota.ru/bad-company/weep-no-more-chords.htm
Привет, Гость.
Предлагаем пройти революционный курс по гитаре.
Подарок от PrimaNota.Ru, забирай!