PrimaNota.ru - самый крупный в мире бесплатный архив песенных текстов, аккордов, табулатур и нот


Bad Company - Crazy Circles - текст песни, таба, видео

Регистрация Запомнить меня
Войти через:  Facebook Google Twitter Vk Yandex Mail.ru

Bad Company - Crazy Circles - текст песни, таба, видео

Печатать
Просмотров: 377
Tabbed by John Shaw (jashaw@shaw-web.net)

From the Album-"Desolation Angels" 1979
(The following tab is played for the “C2 G    D” structure in the verses below.)

    dudu ud   u ud dudu ud   u ud   dudu ud   u ud dudu ud   u ud  (Stroke)
E|--3333-00h2-3-32-3333-00h2-3-32-|-3333-00h2-3-32-3333-00h2-3-32-|
B|--3333-33-3-3-33-3333-33-3-3-33-|-3333-33-3-3-33-3333-33-3-3-33-|
G|--0000-00h2-2-22-0000-00h2-2-22-|-0000-00h2-2-22-0000-00h2-2-22-|
D|--2220-00-0-0-00-2220-00-0-0-00-|-2220-00-0-0-00-2220-00-0-0-00-|
A|--3332-----------3332-----------|-3332-----------3332-----------|
E|-----3--------------3-----------|----3--------------3-----------|

C2  G  D       C2     G  D       C2  G  D             C2 G   D
Life is like a merry go round painted horses riding up and down

C2  G  D                   C2   G D        C2  G  D            C2   G  D
Music takes you and you're gone again, Crazy circles never seem to end

   Bm               G           Bm            G
Oh I, will face the sun Leavin' shadows far behind

      Bm              G          Bm-D-E-G-A  
And together we'll go on Through time      oh yeah

C2   G  D      C2   G  D         C2   G    D          C2   G D
Life is just a game of chance, Some find riches and some romance

C2   G    D             C2   G    D       C2   G       D         C2   G     D
Some find happiness and some find sorrow, Some find it today and some maybe tomorrow

   Bm                G          Bm            G
Oh I, will face the sun Leavin' shadows far behind
      Bm              G          Bm-D-E-G-A  
And together we'll go on Through time       whoa yeah

(Acoustic Lead Verse)
|-----|------------------32---------------------------23-5-3-23-3p23/5-------|
|-----|--------------------3-5-3--------------------23----------------3-5p3-3|
|-----|--------0-2-42-----------2-2--54-----------24-------------------------|
|-----|----024-------4-----------------74------245---------------------------|
|-0-0-|-024------------------------------55-5-5------------------------------|
|-----|----------------------------------------------------------------------|

|-323/5-23-3-3/5----------------------235-5--10-10.12.10--------|
|---------------3------------------235------------------10.12.10|
|-----------------0245-422-4----024-----------------------------|
|----------------------------024--------------------------------|
|---------------------------------------------------------------|
|---------------------------------------------------------------|

C2   G  D      C2 G D      C2  G   D               C2   G     D
Life is like a carousel, You aim for heaven, And you wind up in hell

    C2 G   D                   C2   G D                C2   G D           C2 G   D
To all the world you're livin' like a king, But you're just a puppet on a broken string

   Bm               G           Bm            G
Oh I, will face the sun Leavin' shadows far behind

      Bm              G          Bm-D-E-G-A  
And together we'll go on Through time  

C2   G  D    C2  G  D  C2   G  D    C2  G  D
Life is like mmmmmmm   Life is like mmmmm
C2  G  D      C2    G         D      C2  G  D      C2    G      D
Crazy circles goin' round and round, Crazy circles round and round and round

C2  G  D          C2  G  D                C2  G          D      C2  G      D
One day you're up mmmmmm, yeah   and the next day you're down
C2   G  D     C2  G  D     C2   G  D      C2    G  D         C2  G  D
Life is like,              Life is like a merry go round          Yeah, Yeah

C2  G  D   C2  G  D
Добавлено: 14.06.2012
Другие материалы по этой песне:
  • Аккорды и текст

Страница создана 13.06.2012
http://primanota.ru/bad-company/crazy-circles-chords.htm
Привет, Гость.
Предлагаем пройти революционный курс по гитаре.
Подарок от PrimaNota.Ru, забирай!