PrimaNota.ru - самый крупный в мире бесплатный архив песенных текстов, аккордов, табулатур и нот


Bad City - Fight As One Avengers - таба, видео

Регистрация Запомнить меня
Войти через:  Facebook Google Twitter Vk Yandex Mail.ru

Bad City - Fight As One Avengers - таба, видео

Печатать
Просмотров: 278
Avengers - Earth's Mightiest Heroes
Opening - "Fight As One" Theme Song
Written and Produced by Guy Erez & David Ari Leon
"Fight As One" Performed by Bad City

Comments, problems ect email: tomcornelius6@hotmail.com

Tuning: E standard

Opening Sequence

-----------------------------------------------------------------------------|
-----------------------------------------------------------------------------|
-3-3-3-3-3---6-6-6-6-6-x-----------------------------------------------------|
-3-3-3-3-3---6-6-6-6-6-x-6--6--6--6------------------------------------------|
-1-1-1-1-1---4-4-4-4-4-x-6--6--6--6------------------------------------------|
-------------------------4--4--4--4------------------------------------------| x 3

-----------------------------------------------------------------------------|
-----------------------------------------------------------------------------|
-----------------------------------------------------------------------------|
-6-s-8-----------------------------------------------------------------------|
-6-s-8-----------------------------------------------------------------------|
-4-s-6-----------------------------------------------------------------------|

-------------------------------------------------------------------------------------------------|
-------------------------------------------------------------------------------------------------|
-------------------------------------------------------------------------------------------------|
--3--6--3--1----1--1-----1-----------------------------------------------------------------------|
--------------4-------------4--3--4--------------------------------------------------------------|
------------------------------------------------------------------------------------------- x 4--|

-----------------------------------------------------------------------------|
-----------------------------------------------------------------------------|
-----------------------------------------------------------------------------|
-----------------------------------------------------------------------------|
-1---------------------------------------------------------------------------|
-----------------------------------------------------------------------------|

Solo ED

-----------------------------------------------------------------------------|
--11--14--13--11--9---------14-14-14-16-13--11-------------------------------|
---------------------10------------------------------------------------------|
-----------------------------------------------------------------------------|
-----------------------------------------------------------------------------|
-----------------------------------------------------------------------------|

-----------------------------------------------------------------------------|
-11--14--13--11--9--14---14-14-14-16-13-11-----------------------------------|
-----------------------------------------------------------------------------|
-----------------------------------------------------------------------------|
-----------------------------------------------------------------------------|
-----------------------------------------------------------------------------|

-------------------------------------|
-------------------------------------|
-------------------------------------|
--3--6--3--1----1--1-----1-----------|
--------------4-------------4--3--4--|
-------------------------------------|

---------------------------------------------|
---------------------------------------------|
---------------------------------------------|
--3--6--3--1----1--1-----1-------------------|
--------------4-------------4--3--4-------1--|
---------------------------------------------|
Добавлено: 25.11.2013
Вам также может быть интересно:
Другие материалы по этой песне:

Страница создана 25.11.2013
http://primanota.ru/bad-city/fight-as-one-avengers-chords.htm
Привет, Гость.
Предлагаем пройти революционный курс по гитаре.
Подарок от PrimaNota.Ru, забирай!