PrimaNota.ru - самый крупный в мире бесплатный архив песенных текстов, аккордов, табулатур и нот


Bad Brains - Rock For Light - текст песни, таба, бас-таба, видео

Регистрация Запомнить меня
Войти через:  Facebook Google Twitter Vk Yandex Mail.ru

Bad Brains - Rock For Light - текст песни, таба, бас-таба, видео

Печатать
Просмотров: 193
Уроки эстрадного вокала в Санкт-Петербурге
Intro       Verse       
E|-----------|---------------------------------------------------------------|
B|-----------|---------------------------------------------------------------|
G|----7------|--7-7-7--5-5-5--5-5-5-5--7/6/5/4/3/2--7-7-7--5-5-5--5-5-5-5-5--|
D|--8-7-8-7--|--7-7-7--3-3-3--5-5-5-5---------------7-7-7--3-3-3--5-5-5-5-5--|
A|--8-5-8-7--|--5-5-5---------3-3-3-3---------------5-5-5---------3-3-3-3-3--|
E|--6---6-5--|---------------------------------------------------------------|

E|---------------------------------------------------------------------------|
B|---------------------------------------------------------------------------|
G|--7-7-7--5-5-5--5-5-5-5-3-2---7-7-7--5-5-5--5-5-5-5-5----------------------|
D|--7-7-7--3-3-3--5-5-5-5-3-2---7-7-7--3-3-3--5-5-5-5-5----------------------|
A|--5-5-5---------3-3-3-3-1-0---5-5-5---------3-3-3-3-3----------------------|
E|---------------------------------------------------------------------------|

   Chorus
E|------------------------------------------------------------|--4-4---------|
B|------------------------------------------------------(x2)--|--------------|
G|---------------8-8-8-8-8-8--6-6-6-6-6-6---------------------|--------------|
D|--6-6-6-6-6-6--8-8-8-8-8-8--6-6-6-6-6-6--6-6-6-6-6-6--------|--------------|
A|--6-6-6-6-6-6--6-6-6-6-6-6--4-4-4-4-4-4--6-6-6-6-6-6--------|--------------|
E|--4-4-4-4-4-4----------------------------4-4-4-4-4-4--------|--------------|

   Break/Solo

    E|---------------------------------------------------------------------------|
    B|---------------------------------------------------------------------------|
    G|--7-7-7--5-5-3--5-5-5-5-5---7-7-7--5-5-3--5-5-5-5--3-2---------------------|
 1. D|--7-7-7--3-3-3--5-5-5-5-5---7-7-7--3-3-3--5-5-5-5--3-2---------------------|
    A|--5-5-5------1--3-3-3-3-3---5-5-5------1--3-3-3-3--1-0---------------------|
    E|---------------------------------------------------------------------------|

    E|---------------------------------------------------------------------------|
    B|--13(15)-13(15)-13(15)-13(15)-13(15)-11-13(15)-----------------------------|
    G|------------------------------------------------12-14-10/12-12-------------|
 2. D|---------------------------------------------------------------------------|
    A|---------------------------------------------------------------------------|
    E|---------------------------------------------------------------------------|

    E|--13-12-10--13-12-10--13-12-10--13-12-10--10--10/15---15-13-12-----12-13---|
    B|----------------------------------------------------------------15---------|
    G|---------------------------------------------------------------------------|
    D|---------------------------------------------------------------------------|
    A|---------------------------------------------------------------------------|
    E|---------------------------------------------------------------------------|

    E|---------------------------------------------------------------------------|
    B|--------------------------------13-----------------------------------------|
    G|--12-14-14--12-14-14--12-14-14-----14-12------14-12----12~---14-12---------|
    D|-----------------------------------------14---------15-------------15-14---|
    A|---------------------------------------------------------------------------|
    E|---------------------------------------------------------------------------|

    E|-------------10-12-13--10-12-13--10-12-13--10-12-13--10--14(16)-14(16)-13--|
    B|---------------------------------------------------------------------------|
    G|---------------------------------------------------------------------------|
    D|--15-14-12-----------------------------------------------------------------|
    A|---------------------------------------------------------------------------|
    E|---------------------------------------------------------------------------|

    E|--16(18)-------------------------------------------------------------------|
    B|-----------10---------10------------------10-------10----------------------|
    G|--------------10--7------10-7--9--9/7-5------10-7-----10-7--9-10-12-14-----|
    D|---------------------------------------------------------------------------|
    A|---------------------------------------------------------------------------|
    E|---------------------------------------------------------------------------|

   Outro
E|---------------------------------------------------------------------------||
B|---------------------------------------------------------------------------||
G|--7-7-7--5-5-3--5-5-5-5-5---7-7-7--5-5-3--5-5-5-5--3-2---7-7-7--5-5-3--5---||
D|--7-7-7--3-3-3--5-5-5-5-5---7-7-7--3-3-3--5-5-5-5--3-2---7-7-7--3-3-3--5---||
A|--5-5-5------1--3-3-3-3-3---5-5-5------1--3-3-3-3--1-0---5-5-5------1--3---||
E|---------------------------------------------------------------------------||

Добавлено: 03.07.2012
Другие материалы по этой песне:
  • Аккорды и текст

Страница создана 14.05.2012
http://primanota.ru/bad-brains/rock-for-light-chords.htm
Привет, Гость.
Предлагаем пройти революционный курс по гитаре.
Подарок от PrimaNota.Ru, забирай!