PrimaNota.ru - самый крупный в мире бесплатный архив песенных текстов, аккордов, табулатур и нот


Bad Brains - Jam - таба, видео

Регистрация Запомнить меня
Войти через:  Facebook Google Twitter Vk Yandex Mail.ru

Bad Brains - Jam - таба, видео

Печатать
Просмотров: 180
Band - Bad Brains
Song - Jam
Album - Rock For Light (Re-Issue)

Tabbed By: Tyler Freear (SumFX)

Tuning: Standard (E A D G B E)

Very Easy Reggae Track By The Brains!

Section 1
|-7-7--5-5--7-7--7-7--|
|-8-8--5-5--8-8--7-7--|
|-9-9--5-5--9-9--7-7--| x3
|-9-9--7-7--9-9--9-9--|
|-7-7--7-7--7-7--9-9--|
|------5-5-------7-7--|

|-7-7--5-5--7---7---|
|-8-8--5-5--8---7---|
|-9-9--5-5--9---7---|
|-9-9--7-7--9---9---|
|-7-7--7-7--7---9---|
|------5-5------7---|

|-7---5---7---7---|
|-8---5---8---7---|
|-9---5---9---7---|
|-9---7---9---9---|
|-7---7---7---9---|
|-----5-------7---|

|-7-7--5-5--7-7--7-7--|-7-7--5-5--7----7-7--|
|-8-8--5-5--8-8--7-7--|-8-8--5-5--8----7-7--|
|-9-9--5-5--9-9--7-7--|-9-9--5-5--9----7-7--|
|-9-9--7-7--9-9--9-9--|-9-9--7-7--9----9-9--|
|-7-7--7-7--7-7--9-9--|-7-7--7-7--7----9-9--|
|------5-5-------7-7--|------5-5-------7-7--|

Section 2
|-5--5---7--7--|-5--5---7-------|
|-5--5---7--7--|-5--5---7-------|
|-5--5---7--7--|-5--5---7-------|
|-7--7---9--9--|-7--7---9-------|
|-7--7---9--9--|-7--7---9-------|
|-5--5---7--7--|-5--5---7-------|

Section 3
|-7-7--5-5--7-7--7-7--|
|-8-8--5-5--8-8--7-7--|
|-9-9--5-5--9-9--7-7--| x3
|-9-9--7-7--9-9--9-9--|
|-7-7--7-7--7-7--9-9--|
|------5-5-------7-7--|

Structure
Section 1
Section 2
Section 3

Easy Huh?
Rate & Comment Please :)
Добавлено: 01.07.2012
Другие материалы по этой песне:
  • Аккорды и текст

Страница создана 01.07.2012
http://primanota.ru/bad-brains/jam-chords.htm
Привет, Гость.
Предлагаем пройти революционный курс по гитаре.
Подарок от PrimaNota.Ru, забирай!