PrimaNota.ru - самый крупный в мире бесплатный архив песенных текстов, аккордов, табулатур и нот


Bad Brains - Jah People Make The World Go Round - бас-таба, видео

Регистрация Запомнить меня
Войти через:  Facebook Google Twitter Vk Yandex Mail.ru

Bad Brains - Jah People Make The World Go Round - бас-таба, видео

Печатать
Просмотров: 150
Bass Tab
Bad Brains - Jah People Make The World Go Round
by: Derek G


G--------------------|
D--------------------|
A---8--7-----6-------|
E---------4-----1~---|
:pause
G---------------------|
D---------------------|
A---666---666---4-7---|
E---------------------|
:
G------------------------------------------|
D------------------------------------------| x2
A---666-------666-------666-------44-77----|
E------664400----664400----664400----------|
:
G---------------------------------------------------|
D---------------------------------------------------|
A---666-------666-------666--------8--7-----6-------|
E------664400----664400----664400--------4-----1~---|
:pause
G-----------------------------|
D-----------------------------| x8
A-----------------------------|
E----666-999-777-999-66-97----|
:
G--------------------|
D--------------------|
A--------------------|
E----44~------6~-----|
:
G-----------------------------|
D-----------------------------| x4
A-----------------------------|
E----666-999-777-999-66-97----|
:
G--------------------|
D--------------------|
A--------------------|
E----44~------6~-----|
:
G-----------------------------|
D-----------------------------| x3
A-----------------------------|
E----666-999-777-999-66-97----|
:
G-----------------------------|
D-----------------------------|
A-----------------------------|
E----666-999-777-999-6--------|
: pause
G---------------------|
D---------------------|
A---666---666---4-7---|
E---------------------|
:
G------------------------------------------|
D------------------------------------------| x3
A---666-------666-------666-------44-77----|
E------664400----664400----664400----------|
:
G------------------------------------------|
D------------------------------------------|
A---666-------666-------666-------4--7-----|
E------664400----664400----664400----------|
:End
Добавлено: 07.06.2012
Другие материалы по этой песне:
  • Аккорды и текст

Страница создана 07.06.2012
http://primanota.ru/bad-brains/jah-people-make-the-world-go-round-chords.htm
Привет, Гость.
Предлагаем пройти революционный курс по гитаре.
Подарок от PrimaNota.Ru, забирай!