PrimaNota.ru - самый крупный в мире бесплатный архив песенных текстов, аккордов, табулатур и нот


Bad Brains - Jah Calling - текст песни, таба, бас-таба, видео

Регистрация Запомнить меня
Войти через:  Facebook Google Twitter Vk Yandex Mail.ru

Bad Brains - Jah Calling - текст песни, таба, бас-таба, видео

Печатать
Просмотров: 179
Band - Bad Brains
Song - Jah Calling
Album - Bad Brains

Tabbed By: Tyler Freear (SumFX)

Tuning: Standard (E A D G B E)

Pretty Easy Instrumental Reggae Track From The Brains :)

.=Palm Mute
/\=Slides

Intro
Play This Before The Other Instruments Come In
|-3-3-3-3--|
|-3-3-3-3--|
|-4-4-4-4--|
|-5-5-5-5--|
|-5-5-5-5--|
|-3-3-3-3--|

Whole Song Rhythm
|-------3-3--|
|-5-5---3-3--|
|-5-5---4-4--|
|-5-5---5-5--|
|-3-3---5-5--|
|-------3-3--|

Bass Line
|-------------------|
|-----5-5-5-----5---|
|-3-3-------5-5-----|
|-------------------|

Lead Guitar
You May Need A Flanger To Get The Same Effect
|--------------------------------|
|--------------------------------|
|--------------------------------|
|-5/7\5--5\4/5--3-2-3-2----------|
|-----------------------3--3-2-3-|
|--------------------------------|

|----------------|---------------------------|
|----------------|---------------------------|
|--------5-7-7/9-|-9-7-5--7-5---5--5/7-7-7-5-|
|-5/7\5----------|------------7--------------|
|----------------|---------------------------|
|----------------|---------------------------|

|----------------------|---------------------7-----------|
|----------------------|--------------7-8-10---10-8-7/8--|
|---------------5/7----|-4/5-5/7-5/9---------------------|
|-5/7\5--5/7\5--5/7\5--|---------------------------------|
|----------------------|---------------------------------|
|----------------------|---------------------------------|

|-8----8-10-8--|-8----8-10-12-------------|----------------|
|---10---------|---10---------13----13-15-|-15-15--13--13--|
|--------------|-----------------14-------|----------14----|
|--------------|--------------------------|----------------|
|--------------|--------------------------|----------------|
|--------------|--------------------------|----------------|

|----------|-------------|-------------|---------------------|
|----------|-------------|-------------|---------------------|
|----------|-----5-5/7\5-|-5-7--9-9-/9-|-10-9-7--9-7-5--77-5-|
|-5/7------|-7-7---------|-------------|---------------------|
|-----7-10-|-------------|-------------|---------------------|
|----------|-------------|-------------|---------------------|
             . .
|--------------------|-----------------------------|
|--------------------|-----------------------------|
|-555-5-55-5-5-5-5-5-|-5/7\5------------5-5/7-7/9--|
|--------------------|--------5/7-5/7\5------------|
|--------------------|-----------------------------|
|--------------------|-----------------------------|
  ... . .. . . . . . 
|--------------|-------------------------------------|
|--------------|-------------------------------------|
|-9-9/10-9-----|-5/7\5---5/7-7/9--10\9\7--9-7-5-7-5--|
|----------10--|-5/7\5---5/7-7/9--10\9\7--9-7-5-7-5--|
|--------------|-------------------------------------|
|--------------|-------------------------------------|

|-/8-10-8--12-10--8-10-8-|-8/10-8----8/10-8/10-8--|
|-/8-10-8--12-10--8-10-8-|-8/10-8----8/10-8/10-8--|
|------------------------|------------------------|
|------------------------|------------------------|
|------------------------|------------------------|
|------------------------|------------------------|

Play This In A Reggae Rhythm
|-8-8-10-10-8-8-10-10--8/10-8--|
|-8-8-10-10-8-8-10-10--8/10-8--|
|------------------------------|
|------------------------------|
|------------------------------|
|------------------------------|

Thats All There Is To That Song!
Добавлено: 25.04.2012
Другие материалы по этой песне:
  • Аккорды и текст

Страница создана 01.03.2012
http://primanota.ru/bad-brains/jah-calling-chords.htm
Привет, Гость.
Предлагаем пройти революционный курс по гитаре.
Подарок от PrimaNota.Ru, забирай!