PrimaNota.ru - самый крупный в мире бесплатный архив песенных текстов, аккордов, табулатур и нот


Bad Boy Bill - Bite It - таба, видео

Регистрация Запомнить меня
Войти через:  Facebook Google Twitter Vk Yandex Mail.ru

Bad Boy Bill - Bite It - таба, видео

Печатать
Просмотров: 77
-------------------------------------------------------------------------------
                           Bad Boy Bill - Bite It
-------------------------------------------------------------------------------
Tabbed by: Seismatters
Tuning: Drop D    D A D G B E
YouTube Reference: https://www.youtube.com/watch?v=NhSUqNC74Bw

Intro
e|---------------------------------------------------------------------------|
B|---------------------------------------------------------------------------|
G|---------------------------------------------------------------------------|
D|-3--3--3--3-2--3--3--3--3-2-3--3--3--3-2-3---------------------------------|
A|-3--3--3--3-2--3--3--3--3-2-3--3--3--3-2-3---------------------------------|
D|-3--3--3--3-2--3--3--3--3-2-3--3--3--3-2-3---------------------------------|

Verse/Bridge
e|---------------------------------------------------------------------------|
B|---------------------------------------------------------------------------|
G|---------------------------------------------------------------------------|
D|-3--3--3--2--1--1--0--0-3--3--3--2--1--1--0--0-----------------------------|
A|-3--3--3--2--1--1--0--0-3--3--3--2--1--1--0--0-----------------------------|
E|-3--3--3--2--1--1--0--0-3--3--3--2--1--1--0--0-----------------------------|

Chorus
e|-4--4--4--6-8--8--3--3--4--4--4--6-8--8--11--11----------------------------|
B|---------------------------------------------------------------------------|
G|---------------------------------------------------------------------------|
D|-3--3--3--5-6--6--1--1--3--3--3--5-6--6--10--10----------------------------|
A|-3--3--3--5-6--6--1--1--3--3--3--5-6--6--10--10----------------------------|
E|-3--3--3--5-6--6--1--1--3--3--3--5-6--6--10--10----------------------------|
Добавлено: 17.12.2015
Другие материалы по этой песне:
  • Аккорды и текст

Страница создана 17.12.2015
http://primanota.ru/bad-boy-bill/bite-it-chords.htm
Привет, Гость.
Предлагаем пройти революционный курс по гитаре.
Подарок от PrimaNota.Ru, забирай!