PrimaNota.ru - самый крупный в мире бесплатный архив песенных текстов, аккордов, табулатур и нот


Bad Books - Pytor - таба, видео

Регистрация Запомнить меня
Войти через:  Facebook Google Twitter Vk Yandex Mail.ru

Bad Books - Pytor - таба, видео

Печатать
Просмотров: 140
Eb------------------------------------------------------------------------|
Bb------------------------------------------------------------------------|
Gb------------------------------------------------------------------------|
Db--------0------------0------------0--------------0----------------------|
Ab------7---7--------5---5--------3----2-------0h2------------------------|
Eb----8------------7------------5------3-----3----------------------------|

Eb------------------------------------------------------------------------|
Bb------------------------------------------------------------------------|
Gb------------------------------------------------------------------------|
Db--------0------------0---------------------------0----------------------|
Ab------7---7--------5---5------3s5s3--2-------0h2------------------------|
Eb----8------------7------------5s7s5--3-----3----------------------------|

Bare breasted, you make love in the turret.
I feel each single thrust that you take.
And in silence, I watch on from the bastion.
Entranced, I make myself look away.

Bare breasted making love in the turret.
And I never loved nobody other than you.
In silence, I can feel as you quiver.
Let's keep quiet or you know what he can do.
Mmmmmm.

I know I am not the man you desire.
And I know you think that I am some kind of fool.
I'll tell you in the heat of my scuffle.
I figure out how I can get back to you.

And he found us in the western wing sleeping.
He cried at all the things you thought he would do.
And I tell you in the heat of the scuffle,
Nobody ever takes my eyes off of you..
Hmmmmmm.

And oh Catherine, how you run me my fever.
Oh Catherine tell me was it worth it for him.
Cause these gallows are no place for the stubborn.
Just you and your lover as a dark souvenir.
Hmmmmm. Hmmmmm.

She comes to see me inside the museum.
Comes every morning and again when she can.
Strokes her blistered hand over my glass container.
Saying, "It's so good to see you back here again.."
Ohhh... Ohhh...
Добавлено: 07.06.2013
Другие материалы по этой песне:
  • Аккорды и текст

Страница создана 07.06.2013
http://primanota.ru/bad-books/pytor-chords.htm
Привет, Гость.
Предлагаем пройти революционный курс по гитаре.
Подарок от PrimaNota.Ru, забирай!