PrimaNota.ru - самый крупный в мире бесплатный архив песенных текстов, аккордов, табулатур и нот


Bad Books - No Reward - таба, видео

Регистрация Запомнить меня
Войти через:  Facebook Google Twitter Vk Yandex Mail.ru

Bad Books - No Reward - таба, видео

Печатать
Просмотров: 113
tuning - half step down
figure out the strumming yourself. 

(0:00)intro riff
eb|--------------------------------|---------------|
Bb|--------------------------------|---------------|
Gb|-0-5-3-2-0-----0----------------|---------------|
Db|-----------2-3------------------|---------------|
Ab|--------------------or like this|--3-1-0--------|
Eb|--------------------------------|-3-----3-0-1-3-|

eb|---------------------------------------|
Bb|---------------------------------------|
Gb|-11-1-1--66-6-6--9-9--9--9--4-4brbrbrbr|
Db|-22-2-2--77-7-7--1010-10-10-5----------|
Ab|-22-2-2--77-7-7--1010-10-10-5----------|
Eb|-00-0-0--55-5-5--8-8--8--8--3----------|

(0:12)
eb|-------------------------------------------|
Bb|-------------------------------------------|
Gb|-11-1-1--66-6-6--9-9--9--9--4--------------|
Db|-22-2-2--77-7-7--1010-10-10-5--------------|
Ab|-22-2-2--77-7-7--1010-10-10-5-3-1-0--------|
Eb|-00-0-0--55-5-5--8-8--8--8--3------3-0-1-3-|

eb|-------------------------------------------|
Bb|-------------------------------------------|
Gb|-11-1-1--66-6-6--9-9--9--9--4---5-3-2-----0|
Db|-22-2-2--77-7-7--1010-10-10-5---------2-3--|
Ab|-22-2-2--77-7-7--1010-10-10-5--------------|
Eb|-00-0-0--55-5-5--8-8--8--8--3--------------|

eb|------------------------------------------------------|
Bb|------------------------------------------------------|
Gb|-11-1-1--66-6-6--9-9--9--9---4-4--6-6--2-2-2-2-2-2-2-2|
Db|-22-2-2--77-7-7--1010-10-10--5-5--7-7--3-3-3-3-3-3-3-3|
Ab|-22-2-2--77-7-7--1010-10-10--5-5--7-7--3-3-3-3-3-3-3-3|
Eb|-00-0-0--55-5-5--8-8--8--8---3-3--5-5--1-1-1-1-1-1-1-1|

eb|---------------------------------------------------------|
bb|-8-8-8-10-10----------8-8-8-8-8-10-10----------8-8-8-8-8-|
gb|-8-8-8-10-10-4-4-4-4--8-8-8-8-8-10-10-4-4-4-4--8-8-8-8-8-|
db|-8-8-8-10-10-5-5-5-5--8-8-8-8-8-10-10-5-5-5-5--8-8-8-8-8-|
ab|-6-6-6-8--8--5-5-5-5--6-6-6-6-6-8--8--5-5-5-5--6-6-6-6-6-|
eb|-------------3-3-3-3------------------3-3-3-3------------|

eb|-----------------------------------------------------------|
bb|-----------8-8-8-8-8-8--101010101010-----------------------|
gb|-7-7-------8-8-8-8-8-8--101010101010-4-4-4-4---------------|
db|-8-8--6-6--8-8-8-8-8-8--101010101010-5-5-5-5---------------|
ab|-8-8--6-6--6-6-6-6-6-6--8-8-8-8-8-8--5-5-5-5---3-1-0-------|
eb|-6-6--4-4----------------------------3-3-3-3--3-----3-0-1-3|

(1:05)
eb|---------------------------------------|
Bb|---------------------------------------|
Gb|-11-1-1--66-6-6--9-9--9--9--4-4brbrbrbr|
Db|-22-2-2--77-7-7--1010-10-10-5----------|
Ab|-22-2-2--77-7-7--1010-10-10-5----------|
Eb|-00-0-0--55-5-5--8-8--8--8--3----------|

eb|---------------------------------------|
Bb|---------------------------------------|
Gb|-11-1-1--66-6-6--9-9--9--9--4-4brbrbrbr|
Db|-22-2-2--77-7-7--1010-10-10-5----------|
Ab|-22-2-2--77-7-7--1010-10-10-5----------|
Eb|-00-0-0--55-5-5--8-8--8--8--3----------|

eb|-------------------------------------------|
Bb|-------------------------------------------|
Gb|-11-1-1--66-6-6--9-9--9--9--4-4br-3-2-0----|
Db|-22-2-2--77-7-7--1010-10-10-5-----------2-3|
Ab|-22-2-2--77-7-7--1010-10-10-5--------------|
Eb|-00-0-0--55-5-5--8-8--8--8--3--------------|
(1:32)
eb|------------------------------------------------------|
Bb|------------------------------------------------------|
Gb|-11-1-1--66-6-6--9-9--9--9---4-4--6-6--2-2-2-2-2-2-2-2|
Db|-22-2-2--77-7-7--1010-10-10--5-5--7-7--3-3-3-3-3-3-3-3|
Ab|-22-2-2--77-7-7--1010-10-10--5-5--7-7--3-3-3-3-3-3-3-3|
Eb|-00-0-0--55-5-5--8-8--8--8---3-3--5-5--1-1-1-1-1-1-1-1|

eb|---------------------------------------------------------|
bb|-8-8-8-10-10----------8-8-8-8-8-10-10----------8-8-8-8-8-|
gb|-8-8-8-10-10-4-4-4-4--8-8-8-8-8-10-10-4-4-4-4--8-8-8-8-8-|
db|-8-8-8-10-10-5-5-5-5--8-8-8-8-8-10-10-5-5-5-5--8-8-8-8-8-|
ab|-6-6-6-8--8--5-5-5-5--6-6-6-6-6-8--8--5-5-5-5--6-6-6-6-6-|
eb|-------------3-3-3-3------------------3-3-3-3------------|

eb|-----------------------------------------------------------|
bb|-----------8-8-8-8-8-8--101010101010-----------------------|
gb|-7-7-------8-8-8-8-8-8--101010101010-4-4-4-4---------------|
db|-8-8--6-6--8-8-8-8-8-8--101010101010-5-5-5-5---------------|
ab|-8-8--6-6--6-6-6-6-6-6--8-8-8-8-8-8--5-5-5-5---3-1-0-------|
eb|-6-6--4-4----------------------------3-3-3-3--3-----3-0-1-3|

Bridge:
not gonna try go do the solo
but the other guitar just plays
E A C G two times like normal

(2:26)
eb|------------------------------------------------------|
Bb|------------------------------------------------------|
Gb|-11-1-1--66-6-6--9-9--9--9---4-4--6-6--2-2-2-2-2-2-2-2|
Db|-22-2-2--77-7-7--1010-10-10--5-5--7-7--3-3-3-3-3-3-3-3|
Ab|-22-2-2--77-7-7--1010-10-10--5-5--7-7--3-3-3-3-3-3-3-3|
Eb|-00-0-0--55-5-5--8-8--8--8---3-3--5-5--1-1-1-1-1-1-1-1|

eb|------------------------------------------------|
bb|-8-8-8-10-10----------8-8-8-8-8-10-10-----------|
gb|-8-8-8-10-10-4-4-4-4--8-8-8-8-8-10-10-4-4-4-4---|
db|-8-8-8-10-10-5-5-5-5--8-8-8-8-8-10-10-5-5-5-5---|
ab|-6-6-6-8--8--5-5-5-5--6-6-6-6-6-8--8--5-5-5-5---|
eb|-------------3-3-3-3------------------3-3-3-3---|

eb|---------------------------------------------------------------|
bb|-8-8-8-8-8-10-10----------8-8-8-8-8-10-10---------8-8-8-8-8-8--|
gb|-8-8-8-8-8-10-10-4-4-4-4--8-8-8-8-8-10-10-4-4-4-4-8-8-8-8-8-8--|
db|-8-8-8-8-8-10-10-5-5-5-5--8-8-8-8-8-10-10-5-5-5-5-8-8-8-8-8-8--|
ab|-6-6-6-6-6-8--8--5-5-5-5--6-6-6-6-6-8--8--5-5-5-5-6-6-6-6-6-6--|
eb|-----------------3-3-3-3------------------3-3-3-3--------------|

(2:57)
eb|----------------------------------------------|
bb|-----------8-8-8-8-8-8------------8-8-8-8-8-8-|
gb|-7-7-------8-8-8-8-8-8--7-7-------8-8-8-8-8-8-|
db|-8-8--6-6--8-8-8-8-8-8--8-8--6-6--8-8-8-8-8-8-|
ab|-8-8--6-6--6-6-6-6-6-6--8-8--6-6--6-6-6-6-6-6-|
eb|-6-6--4-4---------------6-6--4-4--------------|

eb|------------------------------------------------------------|
bb|------------------------------------------------------------|
gb|-4-4--6-6--8-8-8-8-8-8--101010101010-4-4-4-4----------------|
db|-5-5--7-7--8-8-8-8-8-8--101010101010-5-5-5-5----------------|
ab|-5-5--7-7--6-6-6-6-6-6--8-8-8-8-8-8--5-5-5-5---3-1-0--------|
eb|-3-3--5-5----------------------------3-3-3-3--3------3-0-1-3|end
Добавлено: 12.07.2013
Другие материалы по этой песне:
  • Аккорды и текст

Страница создана 12.07.2013
http://primanota.ru/bad-books/no-reward-chords.htm
Привет, Гость.
Предлагаем пройти революционный курс по гитаре.
Подарок от PrimaNota.Ru, забирай!