PrimaNota.ru - самый крупный в мире бесплатный архив песенных текстов, аккордов, табулатур и нот


Bad Books - Friendly Advice - таба, видео

Регистрация Запомнить меня
Войти через:  Facebook Google Twitter Vk Yandex Mail.ru

Bad Books - Friendly Advice - таба, видео

Печатать
Просмотров: 111
Tuning- 1/2 step down

***this is the guitar 2 riff that's played several times later in the song
eb|--------------------------------------------------|
Bb|--------------------------------------------------|
Gb|8--6-9----6-8-9-11-9-8-6--------------------------|
Db|----------------------------6br6br6br---6br6br6br-|
Ab|--------------------------------------------------|
Eb|--------------------------------------------------|

Guitar 1
(0:00)
eb|----------------------------------------------------------------------|
Bb|----------------------------------------------------------------------|
Gb|----------------------------------------------------------------------|
Db|7-7-7-7-7-7-7-7-7-7-7-7-7-7-7/11-11-11-7-7-7-7-7-7-7-7-7-7-7-7-7-7-7-7|
Ab|6-6-6-6-6-6-6-6h7-7-7-7-7-7-7/11-11-11-6-6-6-6-6-6-6-6h7-7-7-7-7-7-7-7|
Eb|5-5-5-5-5-5-5-5-5-5-5-5-5-5-5/9--9--9--5-5-5-5-5-5-5-5-5-5-5-5-5-5-5-5|

(0:08) "I don't mind..."
eb|-------------------------------------------------------------------|
Bb|-------------------------------------------------------------------|
Gb|-------------------------------------------------------------------|
Db|7-7-7-7-7-7-7-7-7-7-7-7-7-7-7-7-7-7-7-7-7-7-7-7-7-7-7-7-7-7-7-7-7-7|
Ab|6-6-6-6-6-6-6-6h7-7-7-7-7-7-7-7-6-6-6-6-6-6-6-6h7-7-7-7-7-7-7-7-7-7|
Eb|5-5-5-5-5-5-5-5-5-5-5-5-5-5-5-5-5-5-5-5-5-5-5-5-5-5-5-5-5-5-5-5-5-5|

eb|---------------------------------------|
Bb|---------------------------------------|
Gb|---------------------------------------|
Db|11-11-11-11-6-6-6-6-11-11-11-11-6-6-6-6|
Ab|11-11-11-11-6-6-6-6-11-11-11-11-6-6-6-6|
Eb|9--9--9--9--4-4-4-4-9--9--9--9--4-4-4-4|

(0:19)
eb|----------------------------------------------------------------------|
Bb|----------------------------------------------------------------------|
Gb|----------------------------------------------------------------------|
Db|7-7-7-7-7-7-7-7-7-7-7-7-7-7-7/11-11-11-7-7-7-7-7-7-7-7-7-7-7-7-7-7-7-7|
Ab|6-6-6-6-6-6-6-6h7-7-7-7-7-7-7/11-11-11-6-6-6-6-6-6-6-6h7-7-7-7-7-7-7-7|
Eb|5-5-5-5-5-5-5-5-5-5-5-5-5-5-5/9--9--9--5-5-5-5-5-5-5-5-5-5-5-5-5-5-5-5|

(0:27) "I can see..."
eb|-------------------------------------------------------------------|
Bb|-------------------------------------------------------------------|
Gb|-------------------------------------------------------------------|
Db|7-7-7-7-7-7-7-7-7-7-7-7-7-7-7-7-7-7-7-7-7-7-7-7-7-7-7-7-7-7-7-7-7-7|
Ab|6-6-6-6-6-6-6-6h7-7-7-7-7-7-7-7-6-6-6-6-6-6-6-6h7-7-7-7-7-7-7-7-7-7|
Eb|5-5-5-5-5-5-5-5-5-5-5-5-5-5-5-5-5-5-5-5-5-5-5-5-5-5-5-5-5-5-5-5-5-5|

eb|---------------------------------------|
Bb|---------------------------------------|(these two lines x2)
Gb|---------------------------------------|
Db|11-11-11-11-6-6-6-6-11-11-11-11-6-6-6-6| 
Ab|11-11-11-11-6-6-6-6-11-11-11-11-6-6-6-6|
Eb|9--9--9--9--4-4-4-4-9--9--9--9--4-4-4-4|

(0:50)
eb|----------------------------------------------------------------------|
Bb|----------------------------------------------------------------------|
Gb|----------------------------------------------------------------------|
Db|7-7-7-7-7-7-7-7-7-7-7-7-7-7-7/11-11-11-7-7-7-7-7-7-7-7-7-7-7-7-7-7-7-7|
Ab|6-6-6-6-6-6-6-6h7-7-7-7-7-7-7/11-11-11-6-6-6-6-6-6-6-6h7-7-7-7-7-7-7-7|
Eb|5-5-5-5-5-5-5-5-5-5-5-5-5-5-5/9--9--9--5-5-5-5-5-5-5-5-5-5-5-5-5-5-5-5|

(0:58) "I spent the entire last month.."
eb|---------------------------------------------|
Bb|---------------------------------------------|
Gb|---------------------------------------------|(this x2)
Db|14-----13-----11-----9-----7-----6-----9-----|
Ab|14(x8)-14(x8)-11(x8)-9(x8)-7(x8)-7(x8)-9(x16)|
Eb|12-----11-----9------7-----5-----4-----7-----|

(1:28)
eb|----------------------------------------------------------------------|
Bb|----------------------------------------------------------------------|
Gb|----------------------------------------------------------------------|
Db|7-7-7-7-7-7-7-7-7-7-7-7-7-7-7/11-11-11-7-7-7-7-7-7-7-7-7-7-7-7-7-7-7-7|
Ab|6-6-6-6-6-6-6-6h7-7-7-7-7-7-7/11-11-11-6-6-6-6-6-6-6-6h7-7-7-7-7-7-7-7|
Eb|5-5-5-5-5-5-5-5-5-5-5-5-5-5-5/9--9--9--5-5-5-5-5-5-5-5-5-5-5-5-5-5-5-5|

(1:38) "You can be..."
eb|-------------------------------------------------------------------|
Bb|-------------------------------------------------------------------|
Gb|-------------------------------------------------------------------|
Db|7-7-7-7-7-7-7-7-7-7-7-7-7-7-7-7-7-7-7-7-7-7-7-7-7-7-7-7-7-7-7-7-7-7|
Ab|6-6-6-6-6-6-6-6h7-7-7-7-7-7-7-7-6-6-6-6-6-6-6-6h7-7-7-7-7-7-7-7-7-7|
Eb|5-5-5-5-5-5-5-5-5-5-5-5-5-5-5-5-5-5-5-5-5-5-5-5-5-5-5-5-5-5-5-5-5-5|

eb|---------------------------------------|
Bb|---------------------------------------|(these two lines x2)
Gb|---------------------------------------|
Db|11-11-11-11-6-6-6-6-11-11-11-11-6-6-6-6| 
Ab|11-11-11-11-6-6-6-6-11-11-11-11-6-6-6-6|
Eb|9--9--9--9--4-4-4-4-9--9--9--9--4-4-4-4|

(2:04)
eb|-----------------------------------------------------------------------|
Bb|-----------------------------------------------------------------------|
Gb|-----------------------------------------------------------------------|
Db|7-7-7-7-7-7-7-7-7-7-7-7-7-7-7/11-11-11-7-7-7-7-7-7-7-7-7-7-7-7-7-7-7-7/|
Ab|6-6-6-6-6-6-6-6h7-7-7-7-7-7-7/11-11-11-6-6-6-6-6-6-6-6h7-7-7-7-7-7-7-7/|
Eb|5-5-5-5-5-5-5-5-5-5-5-5-5-5-5/9--9--9--5-5-5-5-5-5-5-5-5-5-5-5-5-5-5-5/|

eb|-------------------------------------------|
Bb|-------------------------------------------|
Gb|-------------------------------------------|
Db|/11-11-11-11-11-6-6-6-6-11-11-11-11-6-6-6-6|
Ab|/11-11-11-11-11-6-6-6-6-11-11-11-11-6-6-6-6|
Eb|/9--9--9--9--9--4-4-4-4-9--9--9--9--4-4-4-4|

eb|----------------------------------------------------------------------|
Bb|----------------------------------------------------------------------|
Gb|----------------------------------------------------------------------|
Db|7-7-7-7-7-7-7-7-7-7-7-7-7-7-7/11-11-11-7-7-7-7-7-7-7-7-7-7-7-7-7-7-7-7|
Ab|6-6-6-6-6-6-6-6h7-7-7-7-7-7-7/11-11-11-6-6-6-6-6-6-6-6h7-7-7-7-7-7-7-7|
Eb|5-5-5-5-5-5-5-5-5-5-5-5-5-5-5/9--9--9--5-5-5-5-5-5-5-5-5-5-5-5-5-5-5-5|

(2:23) "I spent the entire last life.."
eb|---------------------------------------------|
Bb|---------------------------------------------|
Gb|---------------------------------------------|(this x2)
Db|14-----13-----11-----9-----7-----6-----9-----|
Ab|14(x8)-14(x8)-11(x8)-9(x8)-7(x8)-7(x8)-9(x16)|
Eb|12-----11-----9------7-----5-----4-----7-----|

(2:53) "Just so you know.."
eb|-------------|
Bb|-------------|
Gb|-------------|
Db|7------2-----|(this x2)
Ab|7(x14)-2(x14)|
Eb|5------0-----|

(3:10)
eb|-----------------------------------------------------------------------|
Bb|-----------------------------------------------------------------------|
Gb|-----------------------------------------------------------------------|
Db|7-7-7-7-7-7-7-7-7-7-7-7-7-7-7/11-11-11-7-7-7-7-7-7-7-7-7-7-7-7-7-7-7-7/|
Ab|6-6-6-6-6-6-6-6h7-7-7-7-7-7-7/11-11-11-6-6-6-6-6-6-6-6h7-7-7-7-7-7-7-7/|
Eb|5-5-5-5-5-5-5-5-5-5-5-5-5-5-5/9--9--9--5-5-5-5-5-5-5-5-5-5-5-5-5-5-5-5/|

eb|-------------------------------------------|
Bb|-------------------------------------------|(these two line x2)
Gb|-------------------------------------------|
Db|/11-11-11-11-11-6-6-6-6-11-11-11-11-6-6-6-6|
Ab|/11-11-11-11-11-6-6-6-6-11-11-11-11-6-6-6-6|
Eb|/9--9--9--9--9--4-4-4-4-9--9--9--9--4-4-4-4|

End
eb|--|
Bb|--|
Gb|--|
Db|7~|
Ab|6~|
Eb|5~|
Добавлено: 22.08.2013
Другие материалы по этой песне:
  • Аккорды и текст

Страница создана 22.08.2013
http://primanota.ru/bad-books/friendly-advice-chords.htm
Привет, Гость.
Предлагаем пройти революционный курс по гитаре.
Подарок от PrimaNota.Ru, забирай!